0
SECTION
2
HEADER
999
0
999
DXF file generated by DXFWriter.
9
$ACADVER
1
AC1027
9
$MEASUREMENT
70
1
9
$FINGERPRINTGUID
2
{8fa4218e-48ad-454d-982f-396a657175b9}
9
$VERSIONGUID
2
{a9d04b1e-593f-41a3-a0e1-424fce20b679}
9
$EXTMIN
10
-49.31626
20
-200.00000
9
$EXTMAX
10
151.69878
20
200.00000
9
$HANDSEED
5
11A
0
ENDSEC
0
SECTION
2
TABLES
999
0
0
TABLE
2
VPORT
5
1
330
0
100
AcDbSymbolTable
70
0
0
ENDTAB
0
TABLE
2
LTYPE
5
2
330
0
100
AcDbSymbolTable
70
6
0
LTYPE
5
F
330
2
100
AcDbSymbolTableRecord
100
AcDbLinetypeTableRecord
2
CONTINUOUS
3
CONTINUOUS
70
64
72
65
73
0
74
0
40
0.0000000000000000
3
CONTINUOUS
0
LTYPE
5
10
330
2
100
AcDbSymbolTableRecord
100
AcDbLinetypeTableRecord
2
DASHED
3
DASHED
70
64
72
65
73
2
74
0
40
2.0000000000000000
49
1.0000000000000000
74
0
49
-1.0000000000000000
74
0
3
DASHED
0
LTYPE
5
11
330
2
100
AcDbSymbolTableRecord
100
AcDbLinetypeTableRecord
2
DOTTED
3
DOTTED
70
64
72
65
73
2
74
0
40
0.2000000000000000
49
0.0000000000000000
74
0
49
-0.2000000000000000
74
0
3
DOTTED
0
LTYPE
5
12
330
2
100
AcDbSymbolTableRecord
100
AcDbLinetypeTableRecord
2
DASHDOTTED
3
DASHDOTTED
70
64
72
65
73
4
74
0
40
2.0000000000000000
49
1.0000000000000000
74
0
49
-0.5000000000000000
74
0
49
0.0000000000000000
74
0
49
-0.5000000000000000
74
0
3
DASHDOTTED
0
LTYPE
5
13
330
2
100
AcDbSymbolTableRecord
100
AcDbLinetypeTableRecord
2
BYLAYER
3
ByLayer
70
64
72
65
73
0
74
0
40
0.0000000000000000
3
ByLayer
0
LTYPE
5
14
330
2
100
AcDbSymbolTableRecord
100
AcDbLinetypeTableRecord
2
BYBLOCK
3
ByBlock
70
64
72
65
73
0
74
0
40
0.0000000000000000
3
ByBlock
0
ENDTAB
0
TABLE
2
LAYER
5
3
330
0
100
AcDbSymbolTable
70
1
0
LAYER
5
15
330
3
100
AcDbSymbolTableRecord
100
AcDbLayerTableRecord
2
0
70
64
62
7
6
CONTINUOUS
370
25
390
0
0
ENDTAB
0
TABLE
2
STYLE
5
4
330
0
100
AcDbSymbolTable
70
0
0
ENDTAB
0
TABLE
2
VIEW
5
5
330
0
100
AcDbSymbolTable
70
0
0
ENDTAB
0
TABLE
2
UCS
5
6
330
0
100
AcDbSymbolTable
70
0
0
ENDTAB
0
TABLE
2
APPID
5
7
330
0
100
AcDbSymbolTable
70
1
0
APPID
5
E
330
7
100
AcDbSymbolTableRecord
100
AcDbRegAppTableRecord
2
ACAD
70
0
0
ENDTAB
0
TABLE
2
DIMSTYLE
5
8
330
0
100
AcDbSymbolTable
100
AcDbDimStyleTable
70
0
0
ENDTAB
0
TABLE
2
BLOCK_RECORD
5
9
330
0
100
AcDbSymbolTable
70
8
0
BLOCK_RECORD
5
16
330
9
100
AcDbSymbolTableRecord
100
AcDbBlockTableRecord
2
*MODEL_SPACE
70
0
280
1
281
0
0
BLOCK_RECORD
5
19
330
9
100
AcDbSymbolTableRecord
100
AcDbBlockTableRecord
2
*PAPER_SPACE
70
0
280
1
281
0
0
BLOCK_RECORD
5
1C
330
9
100
AcDbSymbolTableRecord
100
AcDbBlockTableRecord
2
tree1
70
0
280
1
281
0
0
BLOCK_RECORD
5
58
330
9
100
AcDbSymbolTableRecord
100
AcDbBlockTableRecord
2
tree2
70
0
280
1
281
0
0
BLOCK_RECORD
5
95
330
9
100
AcDbSymbolTableRecord
100
AcDbBlockTableRecord
2
base
70
0
280
1
281
0
0
BLOCK_RECORD
5
BC
330
9
100
AcDbSymbolTableRecord
100
AcDbBlockTableRecord
2
star1
70
0
280
1
281
0
0
BLOCK_RECORD
5
DA
330
9
100
AcDbSymbolTableRecord
100
AcDbBlockTableRecord
2
star2
70
0
280
1
281
0
0
BLOCK_RECORD
5
F8
330
9
100
AcDbSymbolTableRecord
100
AcDbBlockTableRecord
2
mini star
70
0
280
1
281
0
0
ENDTAB
0
ENDSEC
0
SECTION
2
BLOCKS
999
0
0
BLOCK
5
17
330
16
100
AcDbEntity
8
0
100
AcDbBlockBegin
2
*MODEL_SPACE
70
0
10
0.00000
20
0.00000
30
0.00000
3
*MODEL_SPACE
1

0
ENDBLK
5
18
330
16
100
AcDbEntity
8
0
100
AcDbBlockEnd
0
BLOCK
5
1A
330
19
100
AcDbEntity
8
0
100
AcDbBlockBegin
2
*PAPER_SPACE
70
0
10
0.00000
20
0.00000
30
0.00000
3
*PAPER_SPACE
1

0
ENDBLK
5
1B
330
19
100
AcDbEntity
8
0
100
AcDbBlockEnd
0
BLOCK
5
1D
330
1C
100
AcDbEntity
8
0
100
AcDbBlockBegin
2
tree1
70
0
10
0.00000
20
0.00000
30
0.00000
3
tree1
1

0
LINE
5
1E
330
1C
100
AcDbEntity
8
0
100
AcDbLine
10
1.25000
20
-2.16506
11
10.72262
21
-18.57212
62
3
0
SPLINE
5
1F
330
1C
100
AcDbEntity
8
0
100
AcDbSpline
70
0
71
3
62
3
74
2
12
0.62500
22
-1.08253
32
0.00000
13
-1.25000
23
0.00000
33
0.00000
11
10.72262
21
-18.57212
31
0.00000
11
9.47262
21
-20.73718
31
0.00000
0
LINE
5
20
330
1C
100
AcDbEntity
8
0
100
AcDbLine
10
9.47262
20
-20.73718
11
7.62428
21
-20.73718
62
3
0
SPLINE
5
21
330
1C
100
AcDbEntity
8
0
100
AcDbSpline
70
0
71
3
62
3
74
2
12
-1.25000
22
0.00000
32
0.00000
13
0.62500
23
-1.08253
33
0.00000
11
7.62428
21
-20.73718
31
0.00000
11
6.37428
21
-22.90224
31
0.00000
0
LINE
5
22
330
1C
100
AcDbEntity
8
0
100
AcDbLine
10
6.37428
20
-22.90224
11
17.04416
21
-41.38302
62
3
0
SPLINE
5
23
330
1C
100
AcDbEntity
8
0
100
AcDbSpline
70
0
71
3
62
3
74
2
12
0.62500
22
-1.08253
32
0.00000
13
-1.25000
23
0.00000
33
0.00000
11
17.04416
21
-41.38302
31
0.00000
11
15.79416
21
-43.54808
31
0.00000
0
LINE
5
24
330
1C
100
AcDbEntity
8
0
100
AcDbLine
10
15.79416
20
-43.54808
11
13.26099
21
-43.54808
62
3
0
SPLINE
5
25
330
1C
100
AcDbEntity
8
0
100
AcDbSpline
70
0
71
3
62
3
74
2
12
-1.25000
22
0.00000
32
0.00000
13
0.62500
23
-1.08253
33
0.00000
11
13.26099
21
-43.54808
31
0.00000
11
12.01099
21
-45.71314
31
0.00000
0
LINE
5
26
330
1C
100
AcDbEntity
8
0
100
AcDbLine
10
12.01099
20
-45.71314
11
23.99785
21
-66.47501
62
3
0
SPLINE
5
27
330
1C
100
AcDbEntity
8
0
100
AcDbSpline
70
0
71
3
62
3
74
2
12
0.62500
22
-1.08253
32
0.00000
13
-1.25000
23
0.00000
33
0.00000
11
23.99785
21
-66.47501
31
0.00000
11
22.74785
21
-68.64007
31
0.00000
0
LINE
5
28
330
1C
100
AcDbEntity
8
0
100
AcDbLine
10
22.74785
20
-68.64007
11
19.46137
21
-68.64007
62
3
0
SPLINE
5
29
330
1C
100
AcDbEntity
8
0
100
AcDbSpline
70
0
71
3
62
3
74
2
12
-1.25000
22
0.00000
32
0.00000
13
0.62500
23
-1.08253
33
0.00000
11
19.46137
21
-68.64007
31
0.00000
11
18.21137
21
-70.80513
31
0.00000
0
LINE
5
2A
330
1C
100
AcDbEntity
8
0
100
AcDbLine
10
18.21137
20
-70.80513
11
31.64692
21
-94.07619
62
3
0
SPLINE
5
2B
330
1C
100
AcDbEntity
8
0
100
AcDbSpline
70
0
71
3
62
3
74
2
12
0.62500
22
-1.08253
32
0.00000
13
-1.25000
23
0.00000
33
0.00000
11
31.64692
21
-94.07619
31
0.00000
11
30.39692
21
-96.24126
31
0.00000
0
LINE
5
2C
330
1C
100
AcDbEntity
8
0
100
AcDbLine
10
30.39692
20
-96.24126
11
26.28178
21
-96.24126
62
3
0
SPLINE
5
2D
330
1C
100
AcDbEntity
8
0
100
AcDbSpline
70
0
71
3
62
3
74
2
12
-1.25000
22
0.00000
32
0.00000
13
0.62500
23
-1.08253
33
0.00000
11
26.28178
21
-96.24126
31
0.00000
11
25.03178
21
-98.40632
31
0.00000
0
LINE
5
2E
330
1C
100
AcDbEntity
8
0
100
AcDbLine
10
25.03178
20
-98.40632
11
40.06089
21
-124.43750
62
3
0
SPLINE
5
2F
330
1C
100
AcDbEntity
8
0
100
AcDbSpline
70
0
71
3
62
3
74
2
12
0.62500
22
-1.08253
32
0.00000
13
-1.25000
23
0.00000
33
0.00000
11
40.06089
21
-124.43750
31
0.00000
11
38.81089
21
-126.60256
31
0.00000
0
LINE
5
30
330
1C
100
AcDbEntity
8
0
100
AcDbLine
10
38.81089
20
-126.60256
11
33.78424
21
-126.60256
62
3
0
SPLINE
5
31
330
1C
100
AcDbEntity
8
0
100
AcDbSpline
70
0
71
3
62
3
74
2
12
-1.25000
22
0.00000
32
0.00000
13
0.62500
23
-1.08253
33
0.00000
11
33.78424
21
-126.60256
31
0.00000
11
32.53424
21
-128.76763
31
0.00000
0
LINE
5
32
330
1C
100
AcDbEntity
8
0
100
AcDbLine
10
32.53424
20
-128.76763
11
49.31626
21
-157.83494
62
3
0
SPLINE
5
33
330
1C
100
AcDbEntity
8
0
100
AcDbSpline
70
0
71
3
62
3
74
2
12
0.62500
22
-1.08253
32
0.00000
13
-1.25000
23
0.00000
33
0.00000
11
49.31626
21
-157.83494
31
0.00000
11
48.06626
21
-160.00000
31
0.00000
0
LINE
5
34
330
1C
100
AcDbEntity
8
0
100
AcDbLine
10
48.06626
20
-160.00000
11
12.50000
21
-160.00000
62
3
0
SPLINE
5
35
330
1C
100
AcDbEntity
8
0
100
AcDbSpline
70
0
71
3
62
3
74
2
12
-1.25000
22
0.00000
32
0.00000
13
0.00000
23
-1.25000
33
0.00000
11
12.50000
21
-160.00000
31
0.00000
11
10.00000
21
-162.50000
31
0.00000
0
LINE
5
36
330
1C
100
AcDbEntity
8
0
100
AcDbLine
10
10.00000
20
-162.50000
11
10.00000
21
-200.00000
62
3
0
LINE
5
37
330
1C
100
AcDbEntity
8
0
100
AcDbLine
10
10.00000
20
-200.00000
11
1.55000
21
-200.00000
62
3
0
LINE
5
38
330
1C
100
AcDbEntity
8
0
100
AcDbLine
10
1.55000
20
-200.00000
11
1.55000
21
-100.00000
62
3
0
LINE
5
39
330
1C
100
AcDbEntity
8
0
100
AcDbLine
10
1.55000
20
-100.00000
11
-1.55000
21
-100.00000
62
3
0
LINE
5
3A
330
1C
100
AcDbEntity
8
0
100
AcDbLine
10
-1.55000
20
-100.00000
11
-1.55000
21
-200.00000
62
3
0
LINE
5
3B
330
1C
100
AcDbEntity
8
0
100
AcDbLine
10
-1.55000
20
-200.00000
11
-10.00000
21
-200.00000
62
3
0
LINE
5
3C
330
1C
100
AcDbEntity
8
0
100
AcDbLine
10
-10.00000
20
-200.00000
11
-10.00000
21
-162.50000
62
3
0
SPLINE
5
3D
330
1C
100
AcDbEntity
8
0
100
AcDbSpline
70
0
71
3
62
3
74
2
12
0.00000
22
1.25000
32
0.00000
13
-1.25000
23
0.00000
33
0.00000
11
-10.00000
21
-162.50000
31
0.00000
11
-12.50000
21
-160.00000
31
0.00000
0
LINE
5
3E
330
1C
100
AcDbEntity
8
0
100
AcDbLine
10
-12.50000
20
-160.00000
11
-48.06626
21
-160.00000
62
3
0
SPLINE
5
3F
330
1C
100
AcDbEntity
8
0
100
AcDbSpline
70
0
71
3
62
3
74
2
12
-1.25000
22
0.00000
32
0.00000
13
0.62500
23
1.08253
33
0.00000
11
-48.06626
21
-160.00000
31
0.00000
11
-49.31626
21
-157.83494
31
0.00000
0
LINE
5
40
330
1C
100
AcDbEntity
8
0
100
AcDbLine
10
-49.31626
20
-157.83494
11
-32.53424
21
-128.76763
62
3
0
SPLINE
5
41
330
1C
100
AcDbEntity
8
0
100
AcDbSpline
70
0
71
3
62
3
74
2
12
0.62500
22
1.08253
32
0.00000
13
-1.25000
23
0.00000
33
0.00000
11
-32.53424
21
-128.76763
31
0.00000
11
-33.78424
21
-126.60256
31
0.00000
0
LINE
5
42
330
1C
100
AcDbEntity
8
0
100
AcDbLine
10
-33.78424
20
-126.60256
11
-38.81089
21
-126.60256
62
3
0
SPLINE
5
43
330
1C
100
AcDbEntity
8
0
100
AcDbSpline
70
0
71
3
62
3
74
2
12
-1.25000
22
0.00000
32
0.00000
13
0.62500
23
1.08253
33
0.00000
11
-38.81089
21
-126.60256
31
0.00000
11
-40.06089
21
-124.43750
31
0.00000
0
LINE
5
44
330
1C
100
AcDbEntity
8
0
100
AcDbLine
10
-40.06089
20
-124.43750
11
-25.03178
21
-98.40632
62
3
0
SPLINE
5
45
330
1C
100
AcDbEntity
8
0
100
AcDbSpline
70
0
71
3
62
3
74
2
12
0.62500
22
1.08253
32
0.00000
13
-1.25000
23
0.00000
33
0.00000
11
-25.03178
21
-98.40632
31
0.00000
11
-26.28178
21
-96.24126
31
0.00000
0
LINE
5
46
330
1C
100
AcDbEntity
8
0
100
AcDbLine
10
-26.28178
20
-96.24126
11
-30.39692
21
-96.24126
62
3
0
SPLINE
5
47
330
1C
100
AcDbEntity
8
0
100
AcDbSpline
70
0
71
3
62
3
74
2
12
-1.25000
22
0.00000
32
0.00000
13
0.62500
23
1.08253
33
0.00000
11
-30.39692
21
-96.24126
31
0.00000
11
-31.64692
21
-94.07619
31
0.00000
0
LINE
5
48
330
1C
100
AcDbEntity
8
0
100
AcDbLine
10
-31.64692
20
-94.07619
11
-18.21137
21
-70.80513
62
3
0
SPLINE
5
49
330
1C
100
AcDbEntity
8
0
100
AcDbSpline
70
0
71
3
62
3
74
2
12
0.62500
22
1.08253
32
0.00000
13
-1.25000
23
0.00000
33
0.00000
11
-18.21137
21
-70.80513
31
0.00000
11
-19.46137
21
-68.64007
31
0.00000
0
LINE
5
4A
330
1C
100
AcDbEntity
8
0
100
AcDbLine
10
-19.46137
20
-68.64007
11
-22.74785
21
-68.64007
62
3
0
SPLINE
5
4B
330
1C
100
AcDbEntity
8
0
100
AcDbSpline
70
0
71
3
62
3
74
2
12
-1.25000
22
0.00000
32
0.00000
13
0.62500
23
1.08253
33
0.00000
11
-22.74785
21
-68.64007
31
0.00000
11
-23.99785
21
-66.47501
31
0.00000
0
LINE
5
4C
330
1C
100
AcDbEntity
8
0
100
AcDbLine
10
-23.99785
20
-66.47501
11
-12.01099
21
-45.71314
62
3
0
SPLINE
5
4D
330
1C
100
AcDbEntity
8
0
100
AcDbSpline
70
0
71
3
62
3
74
2
12
0.62500
22
1.08253
32
0.00000
13
-1.25000
23
0.00000
33
0.00000
11
-12.01099
21
-45.71314
31
0.00000
11
-13.26099
21
-43.54808
31
0.00000
0
LINE
5
4E
330
1C
100
AcDbEntity
8
0
100
AcDbLine
10
-13.26099
20
-43.54808
11
-15.79416
21
-43.54808
62
3
0
SPLINE
5
4F
330
1C
100
AcDbEntity
8
0
100
AcDbSpline
70
0
71
3
62
3
74
2
12
-1.25000
22
0.00000
32
0.00000
13
0.62500
23
1.08253
33
0.00000
11
-15.79416
21
-43.54808
31
0.00000
11
-17.04416
21
-41.38302
31
0.00000
0
LINE
5
50
330
1C
100
AcDbEntity
8
0
100
AcDbLine
10
-17.04416
20
-41.38302
11
-6.37428
21
-22.90224
62
3
0
SPLINE
5
51
330
1C
100
AcDbEntity
8
0
100
AcDbSpline
70
0
71
3
62
3
74
2
12
0.62500
22
1.08253
32
0.00000
13
-1.25000
23
0.00000
33
0.00000
11
-6.37428
21
-22.90224
31
0.00000
11
-7.62428
21
-20.73718
31
0.00000
0
LINE
5
52
330
1C
100
AcDbEntity
8
0
100
AcDbLine
10
-7.62428
20
-20.73718
11
-9.47262
21
-20.73718
62
3
0
SPLINE
5
53
330
1C
100
AcDbEntity
8
0
100
AcDbSpline
70
0
71
3
62
3
74
2
12
-1.25000
22
0.00000
32
0.00000
13
0.62500
23
1.08253
33
0.00000
11
-9.47262
21
-20.73718
31
0.00000
11
-10.72262
21
-18.57212
31
0.00000
0
LINE
5
54
330
1C
100
AcDbEntity
8
0
100
AcDbLine
10
-10.72262
20
-18.57212
11
-1.25000
21
-2.16506
62
3
0
SPLINE
5
55
330
1C
100
AcDbEntity
8
0
100
AcDbSpline
70
0
71
3
62
3
74
2
12
0.62500
22
1.08253
32
0.00000
13
0.62500
23
-1.08253
33
0.00000
11
-1.25000
21
-2.16506
31
0.00000
11
1.25000
21
-2.16506
31
0.00000
0
ENDBLK
5
56
330
1C
100
AcDbEntity
8
0
100
AcDbBlockEnd
0
BLOCK
5
59
330
58
100
AcDbEntity
8
0
100
AcDbBlockBegin
2
tree2
70
0
10
0.00000
20
0.00000
30
0.00000
3
tree2
1

0
LINE
5
5A
330
58
100
AcDbEntity
8
0
100
AcDbLine
10
0.00000
20
-100.00000
11
1.55000
21
-100.00000
62
3
0
LINE
5
5B
330
58
100
AcDbEntity
8
0
100
AcDbLine
10
1.55000
20
-100.00000
11
1.55000
21
-5.18468
62
3
0
SPLINE
5
5C
330
58
100
AcDbEntity
8
0
100
AcDbSpline
70
0
71
3
62
3
74
2
12
0.00000
22
1.25000
32
0.00000
13
0.62500
23
-1.08253
33
0.00000
11
1.55000
21
-5.18468
31
0.00000
11
2.80000
21
-4.84974
31
0.00000
0
LINE
5
5D
330
58
100
AcDbEntity
8
0
100
AcDbLine
10
2.80000
20
-4.84974
11
10.72262
21
-18.57212
62
3
0
SPLINE
5
5E
330
58
100
AcDbEntity
8
0
100
AcDbSpline
70
0
71
3
62
3
74
2
12
0.62500
22
-1.08253
32
0.00000
13
-1.25000
23
0.00000
33
0.00000
11
10.72262
21
-18.57212
31
0.00000
11
9.47262
21
-20.73718
31
0.00000
0
LINE
5
5F
330
58
100
AcDbEntity
8
0
100
AcDbLine
10
9.47262
20
-20.73718
11
7.62428
21
-20.73718
62
3
0
SPLINE
5
60
330
58
100
AcDbEntity
8
0
100
AcDbSpline
70
0
71
3
62
3
74
2
12
-1.25000
22
0.00000
32
0.00000
13
0.62500
23
-1.08253
33
0.00000
11
7.62428
21
-20.73718
31
0.00000
11
6.37428
21
-22.90224
31
0.00000
0
LINE
5
61
330
58
100
AcDbEntity
8
0
100
AcDbLine
10
6.37428
20
-22.90224
11
17.04416
21
-41.38302
62
3
0
SPLINE
5
62
330
58
100
AcDbEntity
8
0
100
AcDbSpline
70
0
71
3
62
3
74
2
12
0.62500
22
-1.08253
32
0.00000
13
-1.25000
23
0.00000
33
0.00000
11
17.04416
21
-41.38302
31
0.00000
11
15.79416
21
-43.54808
31
0.00000
0
LINE
5
63
330
58
100
AcDbEntity
8
0
100
AcDbLine
10
15.79416
20
-43.54808
11
13.26099
21
-43.54808
62
3
0
SPLINE
5
64
330
58
100
AcDbEntity
8
0
100
AcDbSpline
70
0
71
3
62
3
74
2
12
-1.25000
22
0.00000
32
0.00000
13
0.62500
23
-1.08253
33
0.00000
11
13.26099
21
-43.54808
31
0.00000
11
12.01099
21
-45.71314
31
0.00000
0
LINE
5
65
330
58
100
AcDbEntity
8
0
100
AcDbLine
10
12.01099
20
-45.71314
11
23.99785
21
-66.47501
62
3
0
SPLINE
5
66
330
58
100
AcDbEntity
8
0
100
AcDbSpline
70
0
71
3
62
3
74
2
12
0.62500
22
-1.08253
32
0.00000
13
-1.25000
23
0.00000
33
0.00000
11
23.99785
21
-66.47501
31
0.00000
11
22.74785
21
-68.64007
31
0.00000
0
LINE
5
67
330
58
100
AcDbEntity
8
0
100
AcDbLine
10
22.74785
20
-68.64007
11
19.46137
21
-68.64007
62
3
0
SPLINE
5
68
330
58
100
AcDbEntity
8
0
100
AcDbSpline
70
0
71
3
62
3
74
2
12
-1.25000
22
0.00000
32
0.00000
13
0.62500
23
-1.08253
33
0.00000
11
19.46137
21
-68.64007
31
0.00000
11
18.21137
21
-70.80513
31
0.00000
0
LINE
5
69
330
58
100
AcDbEntity
8
0
100
AcDbLine
10
18.21137
20
-70.80513
11
31.64692
21
-94.07619
62
3
0
SPLINE
5
6A
330
58
100
AcDbEntity
8
0
100
AcDbSpline
70
0
71
3
62
3
74
2
12
0.62500
22
-1.08253
32
0.00000
13
-1.25000
23
0.00000
33
0.00000
11
31.64692
21
-94.07619
31
0.00000
11
30.39692
21
-96.24126
31
0.00000
0
LINE
5
6B
330
58
100
AcDbEntity
8
0
100
AcDbLine
10
30.39692
20
-96.24126
11
26.28178
21
-96.24126
62
3
0
SPLINE
5
6C
330
58
100
AcDbEntity
8
0
100
AcDbSpline
70
0
71
3
62
3
74
2
12
-1.25000
22
0.00000
32
0.00000
13
0.62500
23
-1.08253
33
0.00000
11
26.28178
21
-96.24126
31
0.00000
11
25.03178
21
-98.40632
31
0.00000
0
LINE
5
6D
330
58
100
AcDbEntity
8
0
100
AcDbLine
10
25.03178
20
-98.40632
11
40.06089
21
-124.43750
62
3
0
SPLINE
5
6E
330
58
100
AcDbEntity
8
0
100
AcDbSpline
70
0
71
3
62
3
74
2
12
0.62500
22
-1.08253
32
0.00000
13
-1.25000
23
0.00000
33
0.00000
11
40.06089
21
-124.43750
31
0.00000
11
38.81089
21
-126.60256
31
0.00000
0
LINE
5
6F
330
58
100
AcDbEntity
8
0
100
AcDbLine
10
38.81089
20
-126.60256
11
33.78424
21
-126.60256
62
3
0
SPLINE
5
70
330
58
100
AcDbEntity
8
0
100
AcDbSpline
70
0
71
3
62
3
74
2
12
-1.25000
22
0.00000
32
0.00000
13
0.62500
23
-1.08253
33
0.00000
11
33.78424
21
-126.60256
31
0.00000
11
32.53424
21
-128.76763
31
0.00000
0
LINE
5
71
330
58
100
AcDbEntity
8
0
100
AcDbLine
10
32.53424
20
-128.76763
11
49.31626
21
-157.83494
62
3
0
SPLINE
5
72
330
58
100
AcDbEntity
8
0
100
AcDbSpline
70
0
71
3
62
3
74
2
12
0.62500
22
-1.08253
32
0.00000
13
-1.25000
23
0.00000
33
0.00000
11
49.31626
21
-157.83494
31
0.00000
11
48.06626
21
-160.00000
31
0.00000
0
LINE
5
73
330
58
100
AcDbEntity
8
0
100
AcDbLine
10
48.06626
20
-160.00000
11
12.50000
21
-160.00000
62
3
0
SPLINE
5
74
330
58
100
AcDbEntity
8
0
100
AcDbSpline
70
0
71
3
62
3
74
2
12
-1.25000
22
0.00000
32
0.00000
13
0.00000
23
-1.25000
33
0.00000
11
12.50000
21
-160.00000
31
0.00000
11
10.00000
21
-162.50000
31
0.00000
0
LINE
5
75
330
58
100
AcDbEntity
8
0
100
AcDbLine
10
10.00000
20
-162.50000
11
10.00000
21
-200.00000
62
3
0
LINE
5
76
330
58
100
AcDbEntity
8
0
100
AcDbLine
10
10.00000
20
-200.00000
11
-10.00000
21
-200.00000
62
3
0
LINE
5
77
330
58
100
AcDbEntity
8
0
100
AcDbLine
10
-10.00000
20
-200.00000
11
-10.00000
21
-162.50000
62
3
0
SPLINE
5
78
330
58
100
AcDbEntity
8
0
100
AcDbSpline
70
0
71
3
62
3
74
2
12
0.00000
22
1.25000
32
0.00000
13
-1.25000
23
0.00000
33
0.00000
11
-10.00000
21
-162.50000
31
0.00000
11
-12.50000
21
-160.00000
31
0.00000
0
LINE
5
79
330
58
100
AcDbEntity
8
0
100
AcDbLine
10
-12.50000
20
-160.00000
11
-48.06626
21
-160.00000
62
3
0
SPLINE
5
7A
330
58
100
AcDbEntity
8
0
100
AcDbSpline
70
0
71
3
62
3
74
2
12
-1.25000
22
0.00000
32
0.00000
13
0.62500
23
1.08253
33
0.00000
11
-48.06626
21
-160.00000
31
0.00000
11
-49.31626
21
-157.83494
31
0.00000
0
LINE
5
7B
330
58
100
AcDbEntity
8
0
100
AcDbLine
10
-49.31626
20
-157.83494
11
-32.53424
21
-128.76763
62
3
0
SPLINE
5
7C
330
58
100
AcDbEntity
8
0
100
AcDbSpline
70
0
71
3
62
3
74
2
12
0.62500
22
1.08253
32
0.00000
13
-1.25000
23
0.00000
33
0.00000
11
-32.53424
21
-128.76763
31
0.00000
11
-33.78424
21
-126.60256
31
0.00000
0
LINE
5
7D
330
58
100
AcDbEntity
8
0
100
AcDbLine
10
-33.78424
20
-126.60256
11
-38.81089
21
-126.60256
62
3
0
SPLINE
5
7E
330
58
100
AcDbEntity
8
0
100
AcDbSpline
70
0
71
3
62
3
74
2
12
-1.25000
22
0.00000
32
0.00000
13
0.62500
23
1.08253
33
0.00000
11
-38.81089
21
-126.60256
31
0.00000
11
-40.06089
21
-124.43750
31
0.00000
0
LINE
5
7F
330
58
100
AcDbEntity
8
0
100
AcDbLine
10
-40.06089
20
-124.43750
11
-25.03178
21
-98.40632
62
3
0
SPLINE
5
80
330
58
100
AcDbEntity
8
0
100
AcDbSpline
70
0
71
3
62
3
74
2
12
0.62500
22
1.08253
32
0.00000
13
-1.25000
23
0.00000
33
0.00000
11
-25.03178
21
-98.40632
31
0.00000
11
-26.28178
21
-96.24126
31
0.00000
0
LINE
5
81
330
58
100
AcDbEntity
8
0
100
AcDbLine
10
-26.28178
20
-96.24126
11
-30.39692
21
-96.24126
62
3
0
SPLINE
5
82
330
58
100
AcDbEntity
8
0
100
AcDbSpline
70
0
71
3
62
3
74
2
12
-1.25000
22
0.00000
32
0.00000
13
0.62500
23
1.08253
33
0.00000
11
-30.39692
21
-96.24126
31
0.00000
11
-31.64692
21
-94.07619
31
0.00000
0
LINE
5
83
330
58
100
AcDbEntity
8
0
100
AcDbLine
10
-31.64692
20
-94.07619
11
-18.21137
21
-70.80513
62
3
0
SPLINE
5
84
330
58
100
AcDbEntity
8
0
100
AcDbSpline
70
0
71
3
62
3
74
2
12
0.62500
22
1.08253
32
0.00000
13
-1.25000
23
0.00000
33
0.00000
11
-18.21137
21
-70.80513
31
0.00000
11
-19.46137
21
-68.64007
31
0.00000
0
LINE
5
85
330
58
100
AcDbEntity
8
0
100
AcDbLine
10
-19.46137
20
-68.64007
11
-22.74785
21
-68.64007
62
3
0
SPLINE
5
86
330
58
100
AcDbEntity
8
0
100
AcDbSpline
70
0
71
3
62
3
74
2
12
-1.25000
22
0.00000
32
0.00000
13
0.62500
23
1.08253
33
0.00000
11
-22.74785
21
-68.64007
31
0.00000
11
-23.99785
21
-66.47501
31
0.00000
0
LINE
5
87
330
58
100
AcDbEntity
8
0
100
AcDbLine
10
-23.99785
20
-66.47501
11
-12.01099
21
-45.71314
62
3
0
SPLINE
5
88
330
58
100
AcDbEntity
8
0
100
AcDbSpline
70
0
71
3
62
3
74
2
12
0.62500
22
1.08253
32
0.00000
13
-1.25000
23
0.00000
33
0.00000
11
-12.01099
21
-45.71314
31
0.00000
11
-13.26099
21
-43.54808
31
0.00000
0
LINE
5
89
330
58
100
AcDbEntity
8
0
100
AcDbLine
10
-13.26099
20
-43.54808
11
-15.79416
21
-43.54808
62
3
0
SPLINE
5
8A
330
58
100
AcDbEntity
8
0
100
AcDbSpline
70
0
71
3
62
3
74
2
12
-1.25000
22
0.00000
32
0.00000
13
0.62500
23
1.08253
33
0.00000
11
-15.79416
21
-43.54808
31
0.00000
11
-17.04416
21
-41.38302
31
0.00000
0
LINE
5
8B
330
58
100
AcDbEntity
8
0
100
AcDbLine
10
-17.04416
20
-41.38302
11
-6.37428
21
-22.90224
62
3
0
SPLINE
5
8C
330
58
100
AcDbEntity
8
0
100
AcDbSpline
70
0
71
3
62
3
74
2
12
0.62500
22
1.08253
32
0.00000
13
-1.25000
23
0.00000
33
0.00000
11
-6.37428
21
-22.90224
31
0.00000
11
-7.62428
21
-20.73718
31
0.00000
0
LINE
5
8D
330
58
100
AcDbEntity
8
0
100
AcDbLine
10
-7.62428
20
-20.73718
11
-9.47262
21
-20.73718
62
3
0
SPLINE
5
8E
330
58
100
AcDbEntity
8
0
100
AcDbSpline
70
0
71
3
62
3
74
2
12
-1.25000
22
0.00000
32
0.00000
13
0.62500
23
1.08253
33
0.00000
11
-9.47262
21
-20.73718
31
0.00000
11
-10.72262
21
-18.57212
31
0.00000
0
LINE
5
8F
330
58
100
AcDbEntity
8
0
100
AcDbLine
10
-10.72262
20
-18.57212
11
-2.80000
21
-4.84974
62
3
0
SPLINE
5
90
330
58
100
AcDbEntity
8
0
100
AcDbSpline
70
0
71
3
62
3
74
2
12
0.62500
22
1.08253
32
0.00000
13
0.00000
23
-1.25000
33
0.00000
11
-2.80000
21
-4.84974
31
0.00000
11
-1.55000
21
-5.18468
31
0.00000
0
LINE
5
91
330
58
100
AcDbEntity
8
0
100
AcDbLine
10
-1.55000
20
-5.18468
11
-1.55000
21
-100.00000
62
3
0
LINE
5
92
330
58
100
AcDbEntity
8
0
100
AcDbLine
10
-1.55000
20
-100.00000
11
0.00000
21
-100.00000
62
3
0
ENDBLK
5
93
330
58
100
AcDbEntity
8
0
100
AcDbBlockEnd
0
BLOCK
5
96
330
95
100
AcDbEntity
8
0
100
AcDbBlockBegin
2
base
70
0
10
0.00000
20
0.00000
30
0.00000
3
base
1

0
LINE
5
97
330
95
100
AcDbEntity
8
0
100
AcDbLine
10
27.75816
20
1.10641
11
14.37710
21
7.71036
0
SPLINE
5
98
330
95
100
AcDbEntity
8
0
100
AcDbSpline
70
0
71
3
74
2
12
-1.12092
22
0.55321
32
0.00000
13
-0.17975
23
1.23701
33
0.00000
11
14.37710
21
7.71036
31
0.00000
11
11.77576
21
11.29080
31
0.00000
0
LINE
5
99
330
95
100
AcDbEntity
8
0
100
AcDbLine
10
11.77576
20
11.29080
11
9.63001
21
26.05768
0
SPLINE
5
9A
330
95
100
AcDbEntity
8
0
100
AcDbSpline
70
0
71
3
74
2
12
-0.17975
22
1.23701
32
0.00000
13
-0.87251
23
-0.89511
33
0.00000
11
9.63001
21
26.05768
31
0.00000
11
7.52548
21
26.74148
31
0.00000
0
LINE
5
9B
330
95
100
AcDbEntity
8
0
100
AcDbLine
10
7.52548
20
26.74148
11
-2.89023
21
16.05606
0
SPLINE
5
9C
330
95
100
AcDbEntity
8
0
100
AcDbSpline
70
0
71
3
74
2
12
-0.87251
22
-0.89511
32
0.00000
13
-1.23201
23
0.21131
33
0.00000
11
-2.89023
21
16.05606
31
0.00000
11
-7.09928
21
14.68846
31
0.00000
0
LINE
5
9D
330
95
100
AcDbEntity
8
0
100
AcDbLine
10
-7.09928
20
14.68846
11
-21.80649
21
17.21094
0
SPLINE
5
9E
330
95
100
AcDbEntity
8
0
100
AcDbSpline
70
0
71
3
74
2
12
-1.23201
22
0.21131
32
0.00000
13
0.58168
23
-1.10641
33
0.00000
11
-21.80649
21
17.21094
31
0.00000
11
-23.10716
21
15.42073
31
0.00000
0
LINE
5
9F
330
95
100
AcDbEntity
8
0
100
AcDbLine
10
-23.10716
20
15.42073
11
-16.16335
21
2.21283
0
SPLINE
5
A0
330
95
100
AcDbEntity
8
0
100
AcDbSpline
70
0
71
3
74
2
12
0.58168
22
-1.10641
32
0.00000
13
-0.58168
23
-1.10641
33
0.00000
11
-16.16335
21
2.21283
31
0.00000
11
-16.16335
21
-2.21283
31
0.00000
0
LINE
5
A1
330
95
100
AcDbEntity
8
0
100
AcDbLine
10
-16.16335
20
-2.21283
11
-23.10716
21
-15.42073
0
SPLINE
5
A2
330
95
100
AcDbEntity
8
0
100
AcDbSpline
70
0
71
3
74
2
12
-0.58168
22
-1.10641
32
0.00000
13
1.23201
23
0.21131
33
0.00000
11
-23.10716
21
-15.42073
31
0.00000
11
-21.80649
21
-17.21094
31
0.00000
0
LINE
5
A3
330
95
100
AcDbEntity
8
0
100
AcDbLine
10
-21.80649
20
-17.21094
11
-7.09928
21
-14.68846
0
SPLINE
5
A4
330
95
100
AcDbEntity
8
0
100
AcDbSpline
70
0
71
3
74
2
12
1.23201
22
0.21131
32
0.00000
13
0.87251
23
-0.89511
33
0.00000
11
-7.09928
21
-14.68846
31
0.00000
11
-2.89023
21
-16.05606
31
0.00000
0
LINE
5
A5
330
95
100
AcDbEntity
8
0
100
AcDbLine
10
-2.89023
20
-16.05606
11
7.52548
21
-26.74148
0
SPLINE
5
A6
330
95
100
AcDbEntity
8
0
100
AcDbSpline
70
0
71
3
74
2
12
0.87251
22
-0.89511
32
0.00000
13
0.17975
23
1.23701
33
0.00000
11
7.52548
21
-26.74148
31
0.00000
11
9.63001
21
-26.05768
31
0.00000
0
LINE
5
A7
330
95
100
AcDbEntity
8
0
100
AcDbLine
10
9.63001
20
-26.05768
11
11.77576
21
-11.29080
0
SPLINE
5
A8
330
95
100
AcDbEntity
8
0
100
AcDbSpline
70
0
71
3
74
2
12
0.17975
22
1.23701
32
0.00000
13
1.12092
23
0.55321
33
0.00000
11
11.77576
21
-11.29080
31
0.00000
11
14.37710
21
-7.71036
31
0.00000
0
LINE
5
A9
330
95
100
AcDbEntity
8
0
100
AcDbLine
10
14.37710
20
-7.71036
11
27.75816
21
-1.10641
0
SPLINE
5
AA
330
95
100
AcDbEntity
8
0
100
AcDbSpline
70
0
71
3
74
2
12
1.12092
22
0.55321
32
0.00000
13
-1.12092
23
0.55321
33
0.00000
11
27.75816
21
-1.10641
31
0.00000
11
27.75816
21
1.10641
31
0.00000
0
POLYLINE
5
AB
330
95
100
AcDbEntity
8
0
100
AcDb2dPolyline
10
0.00000
20
0.00000
70
1
66
1
62
6
0
VERTEX
5
AC
330
95
100
AcDbEntity
8
0
100
AcDbVertex
100
AcDb2dVertex
10
-1.55000
20
10.00000
0
VERTEX
5
AD
330
95
100
AcDbEntity
8
0
100
AcDbVertex
100
AcDb2dVertex
10
-1.55000
20
1.55000
0
VERTEX
5
AE
330
95
100
AcDbEntity
8
0
100
AcDbVertex
100
AcDb2dVertex
10
-10.00000
20
1.55000
0
VERTEX
5
AF
330
95
100
AcDbEntity
8
0
100
AcDbVertex
100
AcDb2dVertex
10
-10.00000
20
-1.55000
0
VERTEX
5
B0
330
95
100
AcDbEntity
8
0
100
AcDbVertex
100
AcDb2dVertex
10
-1.55000
20
-1.55000
0
VERTEX
5
B1
330
95
100
AcDbEntity
8
0
100
AcDbVertex
100
AcDb2dVertex
10
-1.55000
20
-10.00000
0
VERTEX
5
B2
330
95
100
AcDbEntity
8
0
100
AcDbVertex
100
AcDb2dVertex
10
1.55000
20
-10.00000
0
VERTEX
5
B3
330
95
100
AcDbEntity
8
0
100
AcDbVertex
100
AcDb2dVertex
10
1.55000
20
-1.55000
0
VERTEX
5
B4
330
95
100
AcDbEntity
8
0
100
AcDbVertex
100
AcDb2dVertex
10
10.00000
20
-1.55000
0
VERTEX
5
B5
330
95
100
AcDbEntity
8
0
100
AcDbVertex
100
AcDb2dVertex
10
10.00000
20
1.55000
0
VERTEX
5
B6
330
95
100
AcDbEntity
8
0
100
AcDbVertex
100
AcDb2dVertex
10
1.55000
20
1.55000
0
VERTEX
5
B7
330
95
100
AcDbEntity
8
0
100
AcDbVertex
100
AcDb2dVertex
10
1.55000
20
10.00000
0
VERTEX
5
B8
330
95
100
AcDbEntity
8
0
100
AcDbVertex
100
AcDb2dVertex
10
-1.55000
20
10.00000
0
SEQEND
5
B9
330
95
100
AcDbEntity
0
ENDBLK
5
BA
330
95
100
AcDbEntity
8
0
100
AcDbBlockEnd
0
BLOCK
5
BD
330
BC
100
AcDbEntity
8
0
100
AcDbBlockBegin
2
star1
70
0
10
0.00000
20
0.00000
30
0.00000
3
star1
1

0
LINE
5
BE
330
BC
100
AcDbEntity
8
0
100
AcDbLine
10
5.08386
20
-16.80550
11
1.55000
21
-10.68468
62
2
0
LINE
5
BF
330
BC
100
AcDbEntity
8
0
100
AcDbLine
10
1.55000
20
-10.68468
11
1.55000
21
0.00000
62
2
0
LINE
5
C0
330
BC
100
AcDbEntity
8
0
100
AcDbLine
10
1.55000
20
0.00000
11
-1.55000
21
0.00000
62
2
0
LINE
5
C1
330
BC
100
AcDbEntity
8
0
100
AcDbLine
10
-1.55000
20
0.00000
11
-1.55000
21
-10.68468
62
2
0
LINE
5
C2
330
BC
100
AcDbEntity
8
0
100
AcDbLine
10
-1.55000
20
-10.68468
11
-5.08386
21
-16.80550
62
2
0
SPLINE
5
C3
330
BC
100
AcDbEntity
8
0
100
AcDbSpline
70
0
71
3
62
2
74
2
12
-0.62500
22
-1.08253
32
0.00000
13
0.01230
23
1.24994
33
0.00000
11
-5.08386
21
-16.80550
31
0.00000
11
-6.30925
21
-16.47068
31
0.00000
0
LINE
5
C4
330
BC
100
AcDbEntity
8
0
100
AcDbLine
10
-6.30925
20
-16.47068
11
-6.22155
21
-7.55931
62
2
0
SPLINE
5
C5
330
BC
100
AcDbEntity
8
0
100
AcDbSpline
70
0
71
3
62
2
74
2
12
0.01230
22
1.24994
32
0.00000
13
-1.22713
23
0.23802
33
0.00000
11
-6.22155
21
-7.55931
31
0.00000
11
-8.65121
21
-4.58340
31
0.00000
0
LINE
5
C6
330
BC
100
AcDbEntity
8
0
100
AcDbLine
10
-8.65121
20
-4.58340
11
-17.39996
21
-2.88646
62
2
0
SPLINE
5
C7
330
BC
100
AcDbEntity
8
0
100
AcDbSpline
70
0
71
3
62
2
74
2
12
-1.22713
22
0.23802
32
0.00000
13
1.13453
23
0.52474
33
0.00000
11
-17.39996
21
-2.88646
31
0.00000
11
-17.58516
21
-1.36095
31
0.00000
0
LINE
5
C8
330
BC
100
AcDbEntity
8
0
100
AcDbLine
10
-17.58516
20
-1.36095
11
-9.49662
21
2.38014
62
2
0
SPLINE
5
C9
330
BC
100
AcDbEntity
8
0
100
AcDbSpline
70
0
71
3
62
2
74
2
12
1.13453
22
0.52474
32
0.00000
13
-0.31104
23
1.21068
33
0.00000
11
-9.49662
21
2.38014
31
0.00000
11
-7.84964
21
5.85098
31
0.00000
0
LINE
5
CA
330
BC
100
AcDbEntity
8
0
100
AcDbLine
10
-7.84964
20
5.85098
11
-10.06716
21
14.48249
62
2
0
SPLINE
5
CB
330
BC
100
AcDbEntity
8
0
100
AcDbSpline
70
0
71
3
62
2
74
2
12
-0.31104
22
1.21068
32
0.00000
13
0.96045
23
-0.80003
33
0.00000
11
-10.06716
21
14.48249
31
0.00000
11
-8.76834
21
15.30380
31
0.00000
0
LINE
5
CC
330
BC
100
AcDbEntity
8
0
100
AcDbLine
10
-8.76834
20
15.30380
11
-1.92089
21
9.60005
62
2
0
SPLINE
5
CD
330
BC
100
AcDbEntity
8
0
100
AcDbSpline
70
0
71
3
62
2
74
2
12
0.96045
22
-0.80003
32
0.00000
13
0.96045
23
0.80003
33
0.00000
11
-1.92089
21
9.60005
31
0.00000
11
1.92089
21
9.60005
31
0.00000
0
LINE
5
CE
330
BC
100
AcDbEntity
8
0
100
AcDbLine
10
1.92089
20
9.60005
11
8.76834
21
15.30380
62
2
0
SPLINE
5
CF
330
BC
100
AcDbEntity
8
0
100
AcDbSpline
70
0
71
3
62
2
74
2
12
0.96045
22
0.80003
32
0.00000
13
-0.31104
23
-1.21068
33
0.00000
11
8.76834
21
15.30380
31
0.00000
11
10.06716
21
14.48249
31
0.00000
0
LINE
5
D0
330
BC
100
AcDbEntity
8
0
100
AcDbLine
10
10.06716
20
14.48249
11
7.84964
21
5.85098
62
2
0
SPLINE
5
D1
330
BC
100
AcDbEntity
8
0
100
AcDbSpline
70
0
71
3
62
2
74
2
12
-0.31104
22
-1.21068
32
0.00000
13
1.13453
23
-0.52474
33
0.00000
11
7.84964
21
5.85098
31
0.00000
11
9.49662
21
2.38014
31
0.00000
0
LINE
5
D2
330
BC
100
AcDbEntity
8
0
100
AcDbLine
10
9.49662
20
2.38014
11
17.58516
21
-1.36095
62
2
0
SPLINE
5
D3
330
BC
100
AcDbEntity
8
0
100
AcDbSpline
70
0
71
3
62
2
74
2
12
1.13453
22
-0.52474
32
0.00000
13
-1.22713
23
-0.23802
33
0.00000
11
17.58516
21
-1.36095
31
0.00000
11
17.39996
21
-2.88646
31
0.00000
0
LINE
5
D4
330
BC
100
AcDbEntity
8
0
100
AcDbLine
10
17.39996
20
-2.88646
11
8.65121
21
-4.58340
62
2
0
SPLINE
5
D5
330
BC
100
AcDbEntity
8
0
100
AcDbSpline
70
0
71
3
62
2
74
2
12
-1.22713
22
-0.23802
32
0.00000
13
0.01230
23
-1.24994
33
0.00000
11
8.65121
21
-4.58340
31
0.00000
11
6.22155
21
-7.55931
31
0.00000
0
LINE
5
D6
330
BC
100
AcDbEntity
8
0
100
AcDbLine
10
6.22155
20
-7.55931
11
6.30925
21
-16.47068
62
2
0
SPLINE
5
D7
330
BC
100
AcDbEntity
8
0
100
AcDbSpline
70
0
71
3
62
2
74
2
12
0.01230
22
-1.24994
32
0.00000
13
-0.62500
23
1.08253
33
0.00000
11
6.30925
21
-16.47068
31
0.00000
11
5.08386
21
-16.80550
31
0.00000
0
ENDBLK
5
D8
330
BC
100
AcDbEntity
8
0
100
AcDbBlockEnd
0
BLOCK
5
DB
330
DA
100
AcDbEntity
8
0
100
AcDbBlockBegin
2
star2
70
0
10
0.00000
20
0.00000
30
0.00000
3
star2
1

0
LINE
5
DC
330
DA
100
AcDbEntity
8
0
100
AcDbLine
10
5.08386
20
-16.80550
11
1.25000
21
-10.16506
62
2
0
SPLINE
5
DD
330
DA
100
AcDbEntity
8
0
100
AcDbSpline
70
0
71
3
62
2
74
2
12
-0.62500
22
1.08253
32
0.00000
13
-0.62500
23
-1.08253
33
0.00000
11
1.25000
21
-10.16506
31
0.00000
11
-1.25000
21
-10.16506
31
0.00000
0
LINE
5
DE
330
DA
100
AcDbEntity
8
0
100
AcDbLine
10
-1.25000
20
-10.16506
11
-5.08386
21
-16.80550
62
2
0
SPLINE
5
DF
330
DA
100
AcDbEntity
8
0
100
AcDbSpline
70
0
71
3
62
2
74
2
12
-0.62500
22
-1.08253
32
0.00000
13
0.01230
23
1.24994
33
0.00000
11
-5.08386
21
-16.80550
31
0.00000
11
-6.30925
21
-16.47068
31
0.00000
0
LINE
5
E0
330
DA
100
AcDbEntity
8
0
100
AcDbLine
10
-6.30925
20
-16.47068
11
-6.22155
21
-7.55931
62
2
0
SPLINE
5
E1
330
DA
100
AcDbEntity
8
0
100
AcDbSpline
70
0
71
3
62
2
74
2
12
0.01230
22
1.24994
32
0.00000
13
-1.22713
23
0.23802
33
0.00000
11
-6.22155
21
-7.55931
31
0.00000
11
-8.65121
21
-4.58340
31
0.00000
0
LINE
5
E2
330
DA
100
AcDbEntity
8
0
100
AcDbLine
10
-8.65121
20
-4.58340
11
-17.39996
21
-2.88646
62
2
0
SPLINE
5
E3
330
DA
100
AcDbEntity
8
0
100
AcDbSpline
70
0
71
3
62
2
74
2
12
-1.22713
22
0.23802
32
0.00000
13
1.13453
23
0.52474
33
0.00000
11
-17.39996
21
-2.88646
31
0.00000
11
-17.58516
21
-1.36095
31
0.00000
0
LINE
5
E4
330
DA
100
AcDbEntity
8
0
100
AcDbLine
10
-17.58516
20
-1.36095
11
-9.49662
21
2.38014
62
2
0
SPLINE
5
E5
330
DA
100
AcDbEntity
8
0
100
AcDbSpline
70
0
71
3
62
2
74
2
12
1.13453
22
0.52474
32
0.00000
13
-0.31104
23
1.21068
33
0.00000
11
-9.49662
21
2.38014
31
0.00000
11
-7.84964
21
5.85098
31
0.00000
0
LINE
5
E6
330
DA
100
AcDbEntity
8
0
100
AcDbLine
10
-7.84964
20
5.85098
11
-10.06716
21
14.48249
62
2
0
SPLINE
5
E7
330
DA
100
AcDbEntity
8
0
100
AcDbSpline
70
0
71
3
62
2
74
2
12
-0.31104
22
1.21068
32
0.00000
13
0.96045
23
-0.80003
33
0.00000
11
-10.06716
21
14.48249
31
0.00000
11
-8.76834
21
15.30380
31
0.00000
0
LINE
5
E8
330
DA
100
AcDbEntity
8
0
100
AcDbLine
10
-8.76834
20
15.30380
11
-1.55000
21
9.29111
62
2
0
LINE
5
E9
330
DA
100
AcDbEntity
8
0
100
AcDbLine
10
-1.55000
20
9.29111
11
-1.55000
21
0.00000
62
2
0
LINE
5
EA
330
DA
100
AcDbEntity
8
0
100
AcDbLine
10
-1.55000
20
0.00000
11
1.55000
21
0.00000
62
2
0
LINE
5
EB
330
DA
100
AcDbEntity
8
0
100
AcDbLine
10
1.55000
20
0.00000
11
1.55000
21
9.29111
62
2
0
LINE
5
EC
330
DA
100
AcDbEntity
8
0
100
AcDbLine
10
1.55000
20
9.29111
11
8.76834
21
15.30380
62
2
0
SPLINE
5
ED
330
DA
100
AcDbEntity
8
0
100
AcDbSpline
70
0
71
3
62
2
74
2
12
0.96045
22
0.80003
32
0.00000
13
-0.31104
23
-1.21068
33
0.00000
11
8.76834
21
15.30380
31
0.00000
11
10.06716
21
14.48249
31
0.00000
0
LINE
5
EE
330
DA
100
AcDbEntity
8
0
100
AcDbLine
10
10.06716
20
14.48249
11
7.84964
21
5.85098
62
2
0
SPLINE
5
EF
330
DA
100
AcDbEntity
8
0
100
AcDbSpline
70
0
71
3
62
2
74
2
12
-0.31104
22
-1.21068
32
0.00000
13
1.13453
23
-0.52474
33
0.00000
11
7.84964
21
5.85098
31
0.00000
11
9.49662
21
2.38014
31
0.00000
0
LINE
5
F0
330
DA
100
AcDbEntity
8
0
100
AcDbLine
10
9.49662
20
2.38014
11
17.58516
21
-1.36095
62
2
0
SPLINE
5
F1
330
DA
100
AcDbEntity
8
0
100
AcDbSpline
70
0
71
3
62
2
74
2
12
1.13453
22
-0.52474
32
0.00000
13
-1.22713
23
-0.23802
33
0.00000
11
17.58516
21
-1.36095
31
0.00000
11
17.39996
21
-2.88646
31
0.00000
0
LINE
5
F2
330
DA
100
AcDbEntity
8
0
100
AcDbLine
10
17.39996
20
-2.88646
11
8.65121
21
-4.58340
62
2
0
SPLINE
5
F3
330
DA
100
AcDbEntity
8
0
100
AcDbSpline
70
0
71
3
62
2
74
2
12
-1.22713
22
-0.23802
32
0.00000
13
0.01230
23
-1.24994
33
0.00000
11
8.65121
21
-4.58340
31
0.00000
11
6.22155
21
-7.55931
31
0.00000
0
LINE
5
F4
330
DA
100
AcDbEntity
8
0
100
AcDbLine
10
6.22155
20
-7.55931
11
6.30925
21
-16.47068
62
2
0
SPLINE
5
F5
330
DA
100
AcDbEntity
8
0
100
AcDbSpline
70
0
71
3
62
2
74
2
12
0.01230
22
-1.24994
32
0.00000
13
-0.62500
23
1.08253
33
0.00000
11
6.30925
21
-16.47068
31
0.00000
11
5.08386
21
-16.80550
31
0.00000
0
ENDBLK
5
F6
330
DA
100
AcDbEntity
8
0
100
AcDbBlockEnd
0
BLOCK
5
F9
330
F8
100
AcDbEntity
8
0
100
AcDbBlockBegin
2
mini star
70
0
10
0.00000
20
0.00000
30
0.00000
3
mini star
1

0
LINE
5
FA
330
F8
100
AcDbEntity
8
0
100
AcDbLine
10
4.52188
20
0.14630
11
2.21017
21
0.85370
62
2
0
SPLINE
5
FB
330
F8
100
AcDbEntity
8
0
100
AcDbSpline
70
0
71
3
62
2
74
2
12
-0.23906
22
0.07315
32
0.00000
13
0.05618
23
0.24361
33
0.00000
11
2.21017
21
0.85370
31
0.00000
11
1.84441
21
1.48721
31
0.00000
0
LINE
5
FC
330
F8
100
AcDbEntity
8
0
100
AcDbLine
10
1.84441
20
1.48721
11
2.38765
21
3.84291
62
2
0
SPLINE
5
FD
330
F8
100
AcDbEntity
8
0
100
AcDbSpline
70
0
71
3
62
2
74
2
12
0.05618
22
0.24361
32
0.00000
13
-0.18288
23
-0.17045
33
0.00000
11
2.38765
21
3.84291
31
0.00000
11
2.13424
21
3.98922
31
0.00000
0
LINE
5
FE
330
F8
100
AcDbEntity
8
0
100
AcDbLine
10
2.13424
20
3.98922
11
0.36576
21
2.34091
62
2
0
SPLINE
5
FF
330
F8
100
AcDbEntity
8
0
100
AcDbSpline
70
0
71
3
62
2
74
2
12
-0.18288
22
-0.17045
32
0.00000
13
-0.18288
23
0.17045
33
0.00000
11
0.36576
21
2.34091
31
0.00000
11
-0.36576
21
2.34091
31
0.00000
0
LINE
5
100
330
F8
100
AcDbEntity
8
0
100
AcDbLine
10
-0.36576
20
2.34091
11
-2.13424
21
3.98922
62
2
0
SPLINE
5
101
330
F8
100
AcDbEntity
8
0
100
AcDbSpline
70
0
71
3
62
2
74
2
12
-0.18288
22
0.17045
32
0.00000
13
0.05618
23
-0.24361
33
0.00000
11
-2.13424
21
3.98922
31
0.00000
11
-2.38765
21
3.84291
31
0.00000
0
LINE
5
102
330
F8
100
AcDbEntity
8
0
100
AcDbLine
10
-2.38765
20
3.84291
11
-1.84441
21
1.48721
62
2
0
SPLINE
5
103
330
F8
100
AcDbEntity
8
0
100
AcDbSpline
70
0
71
3
62
2
74
2
12
0.05618
22
-0.24361
32
0.00000
13
-0.23906
23
-0.07315
33
0.00000
11
-1.84441
21
1.48721
31
0.00000
11
-2.21017
21
0.85370
31
0.00000
0
LINE
5
104
330
F8
100
AcDbEntity
8
0
100
AcDbLine
10
-2.21017
20
0.85370
11
-4.52188
21
0.14630
62
2
0
SPLINE
5
105
330
F8
100
AcDbEntity
8
0
100
AcDbSpline
70
0
71
3
62
2
74
2
12
-0.23906
22
-0.07315
32
0.00000
13
0.23906
23
-0.07315
33
0.00000
11
-4.52188
21
0.14630
31
0.00000
11
-4.52188
21
-0.14630
31
0.00000
0
LINE
5
106
330
F8
100
AcDbEntity
8
0
100
AcDbLine
10
-4.52188
20
-0.14630
11
-2.21017
21
-0.85370
62
2
0
SPLINE
5
107
330
F8
100
AcDbEntity
8
0
100
AcDbSpline
70
0
71
3
62
2
74
2
12
0.23906
22
-0.07315
32
0.00000
13
-0.05618
23
-0.24361
33
0.00000
11
-2.21017
21
-0.85370
31
0.00000
11
-1.84441
21
-1.48721
31
0.00000
0
LINE
5
108
330
F8
100
AcDbEntity
8
0
100
AcDbLine
10
-1.84441
20
-1.48721
11
-2.38765
21
-3.84291
62
2
0
SPLINE
5
109
330
F8
100
AcDbEntity
8
0
100
AcDbSpline
70
0
71
3
62
2
74
2
12
-0.05618
22
-0.24361
32
0.00000
13
0.18288
23
0.17045
33
0.00000
11
-2.38765
21
-3.84291
31
0.00000
11
-2.13424
21
-3.98922
31
0.00000
0
LINE
5
10A
330
F8
100
AcDbEntity
8
0
100
AcDbLine
10
-2.13424
20
-3.98922
11
-0.36576
21
-2.34091
62
2
0
SPLINE
5
10B
330
F8
100
AcDbEntity
8
0
100
AcDbSpline
70
0
71
3
62
2
74
2
12
0.18288
22
0.17045
32
0.00000
13
0.18288
23
-0.17045
33
0.00000
11
-0.36576
21
-2.34091
31
0.00000
11
0.36576
21
-2.34091
31
0.00000
0
LINE
5
10C
330
F8
100
AcDbEntity
8
0
100
AcDbLine
10
0.36576
20
-2.34091
11
2.13424
21
-3.98922
62
2
0
SPLINE
5
10D
330
F8
100
AcDbEntity
8
0
100
AcDbSpline
70
0
71
3
62
2
74
2
12
0.18288
22
-0.17045
32
0.00000
13
-0.05618
23
0.24361
33
0.00000
11
2.13424
21
-3.98922
31
0.00000
11
2.38765
21
-3.84291
31
0.00000
0
LINE
5
10E
330
F8
100
AcDbEntity
8
0
100
AcDbLine
10
2.38765
20
-3.84291
11
1.84441
21
-1.48721
62
2
0
SPLINE
5
10F
330
F8
100
AcDbEntity
8
0
100
AcDbSpline
70
0
71
3
62
2
74
2
12
-0.05618
22
0.24361
32
0.00000
13
0.23906
23
0.07315
33
0.00000
11
1.84441
21
-1.48721
31
0.00000
11
2.21017
21
-0.85370
31
0.00000
0
LINE
5
110
330
F8
100
AcDbEntity
8
0
100
AcDbLine
10
2.21017
20
-0.85370
11
4.52188
21
-0.14630
62
2
0
SPLINE
5
111
330
F8
100
AcDbEntity
8
0
100
AcDbSpline
70
0
71
3
62
2
74
2
12
0.23906
22
0.07315
32
0.00000
13
-0.23906
23
0.07315
33
0.00000
11
4.52188
21
-0.14630
31
0.00000
11
4.52188
21
0.14630
31
0.00000
0
ENDBLK
5
112
330
F8
100
AcDbEntity
8
0
100
AcDbBlockEnd
0
ENDSEC
0
SECTION
2
ENTITIES
999
0
0
INSERT
5
57
330
16
100
AcDbEntity
8
0
100
AcDbBlockReference
10
50.56626
20
200.00000
2
tree1
70
1
71
1
0
INSERT
5
94
330
16
100
AcDbEntity
8
0
100
AcDbBlockReference
10
151.69878
20
200.00000
2
tree2
70
1
71
1
0
INSERT
5
BB
330
16
100
AcDbEntity
8
0
100
AcDbBlockReference
10
101.13252
20
170.00000
2
base
70
1
71
1
0
INSERT
5
D9
330
16
100
AcDbEntity
8
0
100
AcDbBlockReference
10
101.13252
20
120.00000
2
star1
70
1
71
1
0
INSERT
5
F7
330
16
100
AcDbEntity
8
0
100
AcDbBlockReference
10
101.13252
20
20.00000
2
star2
70
1
71
1
0
INSERT
5
113
330
16
100
AcDbEntity
8
0
100
AcDbBlockReference
10
91.13252
20
95.00000
2
mini star
70
1
71
1
0
INSERT
5
114
330
16
100
AcDbEntity
8
0
100
AcDbBlockReference
10
101.13252
20
95.00000
2
mini star
70
1
71
1
0
INSERT
5
115
330
16
100
AcDbEntity
8
0
100
AcDbBlockReference
10
111.13252
20
95.00000
2
mini star
70
1
71
1
0
INSERT
5
116
330
16
100
AcDbEntity
8
0
100
AcDbBlockReference
10
101.13252
20
85.00000
2
mini star
70
1
71
1
0
INSERT
5
117
330
16
100
AcDbEntity
8
0
100
AcDbBlockReference
10
101.13252
20
75.00000
2
mini star
70
1
71
1
0
INSERT
5
118
330
16
100
AcDbEntity
8
0
100
AcDbBlockReference
10
101.13252
20
65.00000
2
mini star
70
1
71
1
0
ENDSEC
0
SECTION
2
OBJECTS
999
0
0
DICTIONARY
5
A
330
0
100
AcDbDictionary
280
0
281
1
3
ACAD_IMAGE_DICT
350
B
3
ACAD_GROUP
350
C
3
ACAD_IMAGE_VARS
350
D
0
DICTIONARY
5
B
330
A
100
AcDbDictionary
280
0
281
1
0
DICTIONARY
5
C
330
A
100
AcDbDictionary
280
0
281
1
3
mini stars
350
119
0
RASTERVARIABLES
5
D
330
A
100
AcDbRasterVariables
90
0
70
1
71
1
72
1
0
GROUP
5
119
102
{ACAD_REACTORS
330
C
102
}
100
AcDbGroup
71
1
300
mini stars
70
0
340
113
340
114
340
115
340
116
340
117
340
118
0
ENDSEC
0
EOF
