0
SECTION
2
HEADER
999
0
999
DXF file generated by DXFWriter.
9
$ACADVER
1
AC1027
9
$MEASUREMENT
70
1
9
$FINGERPRINTGUID
2
{b4e73640-d14a-454c-99f7-33d3289f1f82}
9
$VERSIONGUID
2
{e7e6a339-2f4b-4cd9-bdda-cc5bc5d46f07}
9
$EXTMIN
10
-38.21895
20
-150.00000
9
$EXTMAX
10
117.46935
20
150.00000
9
$HANDSEED
5
10A
0
ENDSEC
0
SECTION
2
TABLES
999
0
0
TABLE
2
VPORT
5
1
330
0
100
AcDbSymbolTable
70
0
0
ENDTAB
0
TABLE
2
LTYPE
5
2
330
0
100
AcDbSymbolTable
70
6
0
LTYPE
5
F
330
2
100
AcDbSymbolTableRecord
100
AcDbLinetypeTableRecord
2
CONTINUOUS
3
CONTINUOUS
70
64
72
65
73
0
74
0
40
0.0000000000000000
3
CONTINUOUS
0
LTYPE
5
10
330
2
100
AcDbSymbolTableRecord
100
AcDbLinetypeTableRecord
2
DASHED
3
DASHED
70
64
72
65
73
2
74
0
40
2.0000000000000000
49
1.0000000000000000
74
0
49
-1.0000000000000000
74
0
3
DASHED
0
LTYPE
5
11
330
2
100
AcDbSymbolTableRecord
100
AcDbLinetypeTableRecord
2
DOTTED
3
DOTTED
70
64
72
65
73
2
74
0
40
0.2000000000000000
49
0.0000000000000000
74
0
49
-0.2000000000000000
74
0
3
DOTTED
0
LTYPE
5
12
330
2
100
AcDbSymbolTableRecord
100
AcDbLinetypeTableRecord
2
DASHDOTTED
3
DASHDOTTED
70
64
72
65
73
4
74
0
40
2.0000000000000000
49
1.0000000000000000
74
0
49
-0.5000000000000000
74
0
49
0.0000000000000000
74
0
49
-0.5000000000000000
74
0
3
DASHDOTTED
0
LTYPE
5
13
330
2
100
AcDbSymbolTableRecord
100
AcDbLinetypeTableRecord
2
BYLAYER
3
ByLayer
70
64
72
65
73
0
74
0
40
0.0000000000000000
3
ByLayer
0
LTYPE
5
14
330
2
100
AcDbSymbolTableRecord
100
AcDbLinetypeTableRecord
2
BYBLOCK
3
ByBlock
70
64
72
65
73
0
74
0
40
0.0000000000000000
3
ByBlock
0
ENDTAB
0
TABLE
2
LAYER
5
3
330
0
100
AcDbSymbolTable
70
1
0
LAYER
5
15
330
3
100
AcDbSymbolTableRecord
100
AcDbLayerTableRecord
2
0
70
64
62
7
6
CONTINUOUS
370
25
390
0
0
ENDTAB
0
TABLE
2
STYLE
5
4
330
0
100
AcDbSymbolTable
70
0
0
ENDTAB
0
TABLE
2
VIEW
5
5
330
0
100
AcDbSymbolTable
70
0
0
ENDTAB
0
TABLE
2
UCS
5
6
330
0
100
AcDbSymbolTable
70
0
0
ENDTAB
0
TABLE
2
APPID
5
7
330
0
100
AcDbSymbolTable
70
1
0
APPID
5
E
330
7
100
AcDbSymbolTableRecord
100
AcDbRegAppTableRecord
2
ACAD
70
0
0
ENDTAB
0
TABLE
2
DIMSTYLE
5
8
330
0
100
AcDbSymbolTable
100
AcDbDimStyleTable
70
0
0
ENDTAB
0
TABLE
2
BLOCK_RECORD
5
9
330
0
100
AcDbSymbolTable
70
8
0
BLOCK_RECORD
5
16
330
9
100
AcDbSymbolTableRecord
100
AcDbBlockTableRecord
2
*MODEL_SPACE
70
0
280
1
281
0
0
BLOCK_RECORD
5
19
330
9
100
AcDbSymbolTableRecord
100
AcDbBlockTableRecord
2
*PAPER_SPACE
70
0
280
1
281
0
0
BLOCK_RECORD
5
1C
330
9
100
AcDbSymbolTableRecord
100
AcDbBlockTableRecord
2
tree1
70
0
280
1
281
0
0
BLOCK_RECORD
5
50
330
9
100
AcDbSymbolTableRecord
100
AcDbBlockTableRecord
2
tree2
70
0
280
1
281
0
0
BLOCK_RECORD
5
85
330
9
100
AcDbSymbolTableRecord
100
AcDbBlockTableRecord
2
base
70
0
280
1
281
0
0
BLOCK_RECORD
5
AC
330
9
100
AcDbSymbolTableRecord
100
AcDbBlockTableRecord
2
star1
70
0
280
1
281
0
0
BLOCK_RECORD
5
CA
330
9
100
AcDbSymbolTableRecord
100
AcDbBlockTableRecord
2
star2
70
0
280
1
281
0
0
BLOCK_RECORD
5
E8
330
9
100
AcDbSymbolTableRecord
100
AcDbBlockTableRecord
2
mini star
70
0
280
1
281
0
0
ENDTAB
0
ENDSEC
0
SECTION
2
BLOCKS
999
0
0
BLOCK
5
17
330
16
100
AcDbEntity
8
0
100
AcDbBlockBegin
2
*MODEL_SPACE
70
0
10
0.00000
20
0.00000
30
0.00000
3
*MODEL_SPACE
1

0
ENDBLK
5
18
330
16
100
AcDbEntity
8
0
100
AcDbBlockEnd
0
BLOCK
5
1A
330
19
100
AcDbEntity
8
0
100
AcDbBlockBegin
2
*PAPER_SPACE
70
0
10
0.00000
20
0.00000
30
0.00000
3
*PAPER_SPACE
1

0
ENDBLK
5
1B
330
19
100
AcDbEntity
8
0
100
AcDbBlockEnd
0
BLOCK
5
1D
330
1C
100
AcDbEntity
8
0
100
AcDbBlockBegin
2
tree1
70
0
10
0.00000
20
0.00000
30
0.00000
3
tree1
1

0
LINE
5
1E
330
1C
100
AcDbEntity
8
0
100
AcDbLine
10
0.93750
20
-1.62380
11
10.41072
21
-18.03190
62
3
0
SPLINE
5
1F
330
1C
100
AcDbEntity
8
0
100
AcDbSpline
70
0
71
3
62
3
74
2
12
0.46875
22
-0.81190
32
0.00000
13
-0.93750
23
0.00000
33
0.00000
11
10.41072
21
-18.03190
31
0.00000
11
9.47322
21
-19.65570
31
0.00000
0
LINE
5
20
330
1C
100
AcDbEntity
8
0
100
AcDbLine
10
9.47322
20
-19.65570
11
6.73204
21
-19.65570
62
3
0
SPLINE
5
21
330
1C
100
AcDbEntity
8
0
100
AcDbSpline
70
0
71
3
62
3
74
2
12
-0.93750
22
0.00000
32
0.00000
13
0.46875
23
-0.81190
33
0.00000
11
6.73204
21
-19.65570
31
0.00000
11
5.79454
21
-21.27950
31
0.00000
0
LINE
5
22
330
1C
100
AcDbEntity
8
0
100
AcDbLine
10
5.79454
20
-21.27950
11
16.40258
21
-39.65317
62
3
0
SPLINE
5
23
330
1C
100
AcDbEntity
8
0
100
AcDbSpline
70
0
71
3
62
3
74
2
12
0.46875
22
-0.81190
32
0.00000
13
-0.93750
23
0.00000
33
0.00000
11
16.40258
21
-39.65317
31
0.00000
11
15.46508
21
-41.27697
31
0.00000
0
LINE
5
24
330
1C
100
AcDbEntity
8
0
100
AcDbLine
10
15.46508
20
-41.27697
11
12.07478
21
-41.27697
62
3
0
SPLINE
5
25
330
1C
100
AcDbEntity
8
0
100
AcDbSpline
70
0
71
3
62
3
74
2
12
-0.93750
22
0.00000
32
0.00000
13
0.46875
23
-0.81190
33
0.00000
11
12.07478
21
-41.27697
31
0.00000
11
11.13728
21
-42.90076
31
0.00000
0
LINE
5
26
330
1C
100
AcDbEntity
8
0
100
AcDbLine
10
11.13728
20
-42.90076
11
22.99363
21
-63.43656
62
3
0
SPLINE
5
27
330
1C
100
AcDbEntity
8
0
100
AcDbSpline
70
0
71
3
62
3
74
2
12
0.46875
22
-0.81190
32
0.00000
13
-0.93750
23
0.00000
33
0.00000
11
22.99363
21
-63.43656
31
0.00000
11
22.05613
21
-65.06036
31
0.00000
0
LINE
5
28
330
1C
100
AcDbEntity
8
0
100
AcDbLine
10
22.05613
20
-65.06036
11
17.95180
21
-65.06036
62
3
0
SPLINE
5
29
330
1C
100
AcDbEntity
8
0
100
AcDbSpline
70
0
71
3
62
3
74
2
12
-0.93750
22
0.00000
32
0.00000
13
0.46875
23
-0.81190
33
0.00000
11
17.95180
21
-65.06036
31
0.00000
11
17.01430
21
-66.68416
31
0.00000
0
LINE
5
2A
330
1C
100
AcDbEntity
8
0
100
AcDbLine
10
17.01430
20
-66.68416
11
30.24378
21
-89.59830
62
3
0
SPLINE
5
2B
330
1C
100
AcDbEntity
8
0
100
AcDbSpline
70
0
71
3
62
3
74
2
12
0.46875
22
-0.81190
32
0.00000
13
-0.93750
23
0.00000
33
0.00000
11
30.24378
21
-89.59830
31
0.00000
11
29.30628
21
-91.22209
31
0.00000
0
LINE
5
2C
330
1C
100
AcDbEntity
8
0
100
AcDbLine
10
29.30628
20
-91.22209
11
24.41652
21
-91.22209
62
3
0
SPLINE
5
2D
330
1C
100
AcDbEntity
8
0
100
AcDbSpline
70
0
71
3
62
3
74
2
12
-0.93750
22
0.00000
32
0.00000
13
0.46875
23
-0.81190
33
0.00000
11
24.41652
21
-91.22209
31
0.00000
11
23.47902
21
-92.84589
31
0.00000
0
LINE
5
2E
330
1C
100
AcDbEntity
8
0
100
AcDbLine
10
23.47902
20
-92.84589
11
38.21895
21
-118.37620
62
3
0
SPLINE
5
2F
330
1C
100
AcDbEntity
8
0
100
AcDbSpline
70
0
71
3
62
3
74
2
12
0.46875
22
-0.81190
32
0.00000
13
-0.93750
23
0.00000
33
0.00000
11
38.21895
21
-118.37620
31
0.00000
11
37.28145
21
-120.00000
31
0.00000
0
LINE
5
30
330
1C
100
AcDbEntity
8
0
100
AcDbLine
10
37.28145
20
-120.00000
11
9.37500
21
-120.00000
62
3
0
SPLINE
5
31
330
1C
100
AcDbEntity
8
0
100
AcDbSpline
70
0
71
3
62
3
74
2
12
-0.93750
22
0.00000
32
0.00000
13
0.00000
23
-0.93750
33
0.00000
11
9.37500
21
-120.00000
31
0.00000
11
7.50000
21
-121.87500
31
0.00000
0
LINE
5
32
330
1C
100
AcDbEntity
8
0
100
AcDbLine
10
7.50000
20
-121.87500
11
7.50000
21
-150.00000
62
3
0
LINE
5
33
330
1C
100
AcDbEntity
8
0
100
AcDbLine
10
7.50000
20
-150.00000
11
1.55000
21
-150.00000
62
3
0
LINE
5
34
330
1C
100
AcDbEntity
8
0
100
AcDbLine
10
1.55000
20
-150.00000
11
1.55000
21
-75.00000
62
3
0
LINE
5
35
330
1C
100
AcDbEntity
8
0
100
AcDbLine
10
1.55000
20
-75.00000
11
-1.55000
21
-75.00000
62
3
0
LINE
5
36
330
1C
100
AcDbEntity
8
0
100
AcDbLine
10
-1.55000
20
-75.00000
11
-1.55000
21
-150.00000
62
3
0
LINE
5
37
330
1C
100
AcDbEntity
8
0
100
AcDbLine
10
-1.55000
20
-150.00000
11
-7.50000
21
-150.00000
62
3
0
LINE
5
38
330
1C
100
AcDbEntity
8
0
100
AcDbLine
10
-7.50000
20
-150.00000
11
-7.50000
21
-121.87500
62
3
0
SPLINE
5
39
330
1C
100
AcDbEntity
8
0
100
AcDbSpline
70
0
71
3
62
3
74
2
12
0.00000
22
0.93750
32
0.00000
13
-0.93750
23
0.00000
33
0.00000
11
-7.50000
21
-121.87500
31
0.00000
11
-9.37500
21
-120.00000
31
0.00000
0
LINE
5
3A
330
1C
100
AcDbEntity
8
0
100
AcDbLine
10
-9.37500
20
-120.00000
11
-37.28145
21
-120.00000
62
3
0
SPLINE
5
3B
330
1C
100
AcDbEntity
8
0
100
AcDbSpline
70
0
71
3
62
3
74
2
12
-0.93750
22
0.00000
32
0.00000
13
0.46875
23
0.81190
33
0.00000
11
-37.28145
21
-120.00000
31
0.00000
11
-38.21895
21
-118.37620
31
0.00000
0
LINE
5
3C
330
1C
100
AcDbEntity
8
0
100
AcDbLine
10
-38.21895
20
-118.37620
11
-23.47902
21
-92.84589
62
3
0
SPLINE
5
3D
330
1C
100
AcDbEntity
8
0
100
AcDbSpline
70
0
71
3
62
3
74
2
12
0.46875
22
0.81190
32
0.00000
13
-0.93750
23
0.00000
33
0.00000
11
-23.47902
21
-92.84589
31
0.00000
11
-24.41652
21
-91.22209
31
0.00000
0
LINE
5
3E
330
1C
100
AcDbEntity
8
0
100
AcDbLine
10
-24.41652
20
-91.22209
11
-29.30628
21
-91.22209
62
3
0
SPLINE
5
3F
330
1C
100
AcDbEntity
8
0
100
AcDbSpline
70
0
71
3
62
3
74
2
12
-0.93750
22
0.00000
32
0.00000
13
0.46875
23
0.81190
33
0.00000
11
-29.30628
21
-91.22209
31
0.00000
11
-30.24378
21
-89.59830
31
0.00000
0
LINE
5
40
330
1C
100
AcDbEntity
8
0
100
AcDbLine
10
-30.24378
20
-89.59830
11
-17.01430
21
-66.68416
62
3
0
SPLINE
5
41
330
1C
100
AcDbEntity
8
0
100
AcDbSpline
70
0
71
3
62
3
74
2
12
0.46875
22
0.81190
32
0.00000
13
-0.93750
23
0.00000
33
0.00000
11
-17.01430
21
-66.68416
31
0.00000
11
-17.95180
21
-65.06036
31
0.00000
0
LINE
5
42
330
1C
100
AcDbEntity
8
0
100
AcDbLine
10
-17.95180
20
-65.06036
11
-22.05613
21
-65.06036
62
3
0
SPLINE
5
43
330
1C
100
AcDbEntity
8
0
100
AcDbSpline
70
0
71
3
62
3
74
2
12
-0.93750
22
0.00000
32
0.00000
13
0.46875
23
0.81190
33
0.00000
11
-22.05613
21
-65.06036
31
0.00000
11
-22.99363
21
-63.43656
31
0.00000
0
LINE
5
44
330
1C
100
AcDbEntity
8
0
100
AcDbLine
10
-22.99363
20
-63.43656
11
-11.13728
21
-42.90076
62
3
0
SPLINE
5
45
330
1C
100
AcDbEntity
8
0
100
AcDbSpline
70
0
71
3
62
3
74
2
12
0.46875
22
0.81190
32
0.00000
13
-0.93750
23
0.00000
33
0.00000
11
-11.13728
21
-42.90076
31
0.00000
11
-12.07478
21
-41.27697
31
0.00000
0
LINE
5
46
330
1C
100
AcDbEntity
8
0
100
AcDbLine
10
-12.07478
20
-41.27697
11
-15.46508
21
-41.27697
62
3
0
SPLINE
5
47
330
1C
100
AcDbEntity
8
0
100
AcDbSpline
70
0
71
3
62
3
74
2
12
-0.93750
22
0.00000
32
0.00000
13
0.46875
23
0.81190
33
0.00000
11
-15.46508
21
-41.27697
31
0.00000
11
-16.40258
21
-39.65317
31
0.00000
0
LINE
5
48
330
1C
100
AcDbEntity
8
0
100
AcDbLine
10
-16.40258
20
-39.65317
11
-5.79454
21
-21.27950
62
3
0
SPLINE
5
49
330
1C
100
AcDbEntity
8
0
100
AcDbSpline
70
0
71
3
62
3
74
2
12
0.46875
22
0.81190
32
0.00000
13
-0.93750
23
0.00000
33
0.00000
11
-5.79454
21
-21.27950
31
0.00000
11
-6.73204
21
-19.65570
31
0.00000
0
LINE
5
4A
330
1C
100
AcDbEntity
8
0
100
AcDbLine
10
-6.73204
20
-19.65570
11
-9.47322
21
-19.65570
62
3
0
SPLINE
5
4B
330
1C
100
AcDbEntity
8
0
100
AcDbSpline
70
0
71
3
62
3
74
2
12
-0.93750
22
0.00000
32
0.00000
13
0.46875
23
0.81190
33
0.00000
11
-9.47322
21
-19.65570
31
0.00000
11
-10.41072
21
-18.03190
31
0.00000
0
LINE
5
4C
330
1C
100
AcDbEntity
8
0
100
AcDbLine
10
-10.41072
20
-18.03190
11
-0.93750
21
-1.62380
62
3
0
SPLINE
5
4D
330
1C
100
AcDbEntity
8
0
100
AcDbSpline
70
0
71
3
62
3
74
2
12
0.46875
22
0.81190
32
0.00000
13
0.46875
23
-0.81190
33
0.00000
11
-0.93750
21
-1.62380
31
0.00000
11
0.93750
21
-1.62380
31
0.00000
0
ENDBLK
5
4E
330
1C
100
AcDbEntity
8
0
100
AcDbBlockEnd
0
BLOCK
5
51
330
50
100
AcDbEntity
8
0
100
AcDbBlockBegin
2
tree2
70
0
10
0.00000
20
0.00000
30
0.00000
3
tree2
1

0
LINE
5
52
330
50
100
AcDbEntity
8
0
100
AcDbLine
10
0.00000
20
-75.00000
11
1.55000
21
-75.00000
62
3
0
LINE
5
53
330
50
100
AcDbEntity
8
0
100
AcDbLine
10
1.55000
20
-75.00000
11
1.55000
21
-4.55968
62
3
0
SPLINE
5
54
330
50
100
AcDbEntity
8
0
100
AcDbSpline
70
0
71
3
62
3
74
2
12
0.00000
22
0.93750
32
0.00000
13
0.46875
23
-0.81190
33
0.00000
11
1.55000
21
-4.55968
31
0.00000
11
2.48750
21
-4.30848
31
0.00000
0
LINE
5
55
330
50
100
AcDbEntity
8
0
100
AcDbLine
10
2.48750
20
-4.30848
11
10.41072
21
-18.03190
62
3
0
SPLINE
5
56
330
50
100
AcDbEntity
8
0
100
AcDbSpline
70
0
71
3
62
3
74
2
12
0.46875
22
-0.81190
32
0.00000
13
-0.93750
23
0.00000
33
0.00000
11
10.41072
21
-18.03190
31
0.00000
11
9.47322
21
-19.65570
31
0.00000
0
LINE
5
57
330
50
100
AcDbEntity
8
0
100
AcDbLine
10
9.47322
20
-19.65570
11
6.73204
21
-19.65570
62
3
0
SPLINE
5
58
330
50
100
AcDbEntity
8
0
100
AcDbSpline
70
0
71
3
62
3
74
2
12
-0.93750
22
0.00000
32
0.00000
13
0.46875
23
-0.81190
33
0.00000
11
6.73204
21
-19.65570
31
0.00000
11
5.79454
21
-21.27950
31
0.00000
0
LINE
5
59
330
50
100
AcDbEntity
8
0
100
AcDbLine
10
5.79454
20
-21.27950
11
16.40258
21
-39.65317
62
3
0
SPLINE
5
5A
330
50
100
AcDbEntity
8
0
100
AcDbSpline
70
0
71
3
62
3
74
2
12
0.46875
22
-0.81190
32
0.00000
13
-0.93750
23
0.00000
33
0.00000
11
16.40258
21
-39.65317
31
0.00000
11
15.46508
21
-41.27697
31
0.00000
0
LINE
5
5B
330
50
100
AcDbEntity
8
0
100
AcDbLine
10
15.46508
20
-41.27697
11
12.07478
21
-41.27697
62
3
0
SPLINE
5
5C
330
50
100
AcDbEntity
8
0
100
AcDbSpline
70
0
71
3
62
3
74
2
12
-0.93750
22
0.00000
32
0.00000
13
0.46875
23
-0.81190
33
0.00000
11
12.07478
21
-41.27697
31
0.00000
11
11.13728
21
-42.90076
31
0.00000
0
LINE
5
5D
330
50
100
AcDbEntity
8
0
100
AcDbLine
10
11.13728
20
-42.90076
11
22.99363
21
-63.43656
62
3
0
SPLINE
5
5E
330
50
100
AcDbEntity
8
0
100
AcDbSpline
70
0
71
3
62
3
74
2
12
0.46875
22
-0.81190
32
0.00000
13
-0.93750
23
0.00000
33
0.00000
11
22.99363
21
-63.43656
31
0.00000
11
22.05613
21
-65.06036
31
0.00000
0
LINE
5
5F
330
50
100
AcDbEntity
8
0
100
AcDbLine
10
22.05613
20
-65.06036
11
17.95180
21
-65.06036
62
3
0
SPLINE
5
60
330
50
100
AcDbEntity
8
0
100
AcDbSpline
70
0
71
3
62
3
74
2
12
-0.93750
22
0.00000
32
0.00000
13
0.46875
23
-0.81190
33
0.00000
11
17.95180
21
-65.06036
31
0.00000
11
17.01430
21
-66.68416
31
0.00000
0
LINE
5
61
330
50
100
AcDbEntity
8
0
100
AcDbLine
10
17.01430
20
-66.68416
11
30.24378
21
-89.59830
62
3
0
SPLINE
5
62
330
50
100
AcDbEntity
8
0
100
AcDbSpline
70
0
71
3
62
3
74
2
12
0.46875
22
-0.81190
32
0.00000
13
-0.93750
23
0.00000
33
0.00000
11
30.24378
21
-89.59830
31
0.00000
11
29.30628
21
-91.22209
31
0.00000
0
LINE
5
63
330
50
100
AcDbEntity
8
0
100
AcDbLine
10
29.30628
20
-91.22209
11
24.41652
21
-91.22209
62
3
0
SPLINE
5
64
330
50
100
AcDbEntity
8
0
100
AcDbSpline
70
0
71
3
62
3
74
2
12
-0.93750
22
0.00000
32
0.00000
13
0.46875
23
-0.81190
33
0.00000
11
24.41652
21
-91.22209
31
0.00000
11
23.47902
21
-92.84589
31
0.00000
0
LINE
5
65
330
50
100
AcDbEntity
8
0
100
AcDbLine
10
23.47902
20
-92.84589
11
38.21895
21
-118.37620
62
3
0
SPLINE
5
66
330
50
100
AcDbEntity
8
0
100
AcDbSpline
70
0
71
3
62
3
74
2
12
0.46875
22
-0.81190
32
0.00000
13
-0.93750
23
0.00000
33
0.00000
11
38.21895
21
-118.37620
31
0.00000
11
37.28145
21
-120.00000
31
0.00000
0
LINE
5
67
330
50
100
AcDbEntity
8
0
100
AcDbLine
10
37.28145
20
-120.00000
11
9.37500
21
-120.00000
62
3
0
SPLINE
5
68
330
50
100
AcDbEntity
8
0
100
AcDbSpline
70
0
71
3
62
3
74
2
12
-0.93750
22
0.00000
32
0.00000
13
0.00000
23
-0.93750
33
0.00000
11
9.37500
21
-120.00000
31
0.00000
11
7.50000
21
-121.87500
31
0.00000
0
LINE
5
69
330
50
100
AcDbEntity
8
0
100
AcDbLine
10
7.50000
20
-121.87500
11
7.50000
21
-150.00000
62
3
0
LINE
5
6A
330
50
100
AcDbEntity
8
0
100
AcDbLine
10
7.50000
20
-150.00000
11
-7.50000
21
-150.00000
62
3
0
LINE
5
6B
330
50
100
AcDbEntity
8
0
100
AcDbLine
10
-7.50000
20
-150.00000
11
-7.50000
21
-121.87500
62
3
0
SPLINE
5
6C
330
50
100
AcDbEntity
8
0
100
AcDbSpline
70
0
71
3
62
3
74
2
12
0.00000
22
0.93750
32
0.00000
13
-0.93750
23
0.00000
33
0.00000
11
-7.50000
21
-121.87500
31
0.00000
11
-9.37500
21
-120.00000
31
0.00000
0
LINE
5
6D
330
50
100
AcDbEntity
8
0
100
AcDbLine
10
-9.37500
20
-120.00000
11
-37.28145
21
-120.00000
62
3
0
SPLINE
5
6E
330
50
100
AcDbEntity
8
0
100
AcDbSpline
70
0
71
3
62
3
74
2
12
-0.93750
22
0.00000
32
0.00000
13
0.46875
23
0.81190
33
0.00000
11
-37.28145
21
-120.00000
31
0.00000
11
-38.21895
21
-118.37620
31
0.00000
0
LINE
5
6F
330
50
100
AcDbEntity
8
0
100
AcDbLine
10
-38.21895
20
-118.37620
11
-23.47902
21
-92.84589
62
3
0
SPLINE
5
70
330
50
100
AcDbEntity
8
0
100
AcDbSpline
70
0
71
3
62
3
74
2
12
0.46875
22
0.81190
32
0.00000
13
-0.93750
23
0.00000
33
0.00000
11
-23.47902
21
-92.84589
31
0.00000
11
-24.41652
21
-91.22209
31
0.00000
0
LINE
5
71
330
50
100
AcDbEntity
8
0
100
AcDbLine
10
-24.41652
20
-91.22209
11
-29.30628
21
-91.22209
62
3
0
SPLINE
5
72
330
50
100
AcDbEntity
8
0
100
AcDbSpline
70
0
71
3
62
3
74
2
12
-0.93750
22
0.00000
32
0.00000
13
0.46875
23
0.81190
33
0.00000
11
-29.30628
21
-91.22209
31
0.00000
11
-30.24378
21
-89.59830
31
0.00000
0
LINE
5
73
330
50
100
AcDbEntity
8
0
100
AcDbLine
10
-30.24378
20
-89.59830
11
-17.01430
21
-66.68416
62
3
0
SPLINE
5
74
330
50
100
AcDbEntity
8
0
100
AcDbSpline
70
0
71
3
62
3
74
2
12
0.46875
22
0.81190
32
0.00000
13
-0.93750
23
0.00000
33
0.00000
11
-17.01430
21
-66.68416
31
0.00000
11
-17.95180
21
-65.06036
31
0.00000
0
LINE
5
75
330
50
100
AcDbEntity
8
0
100
AcDbLine
10
-17.95180
20
-65.06036
11
-22.05613
21
-65.06036
62
3
0
SPLINE
5
76
330
50
100
AcDbEntity
8
0
100
AcDbSpline
70
0
71
3
62
3
74
2
12
-0.93750
22
0.00000
32
0.00000
13
0.46875
23
0.81190
33
0.00000
11
-22.05613
21
-65.06036
31
0.00000
11
-22.99363
21
-63.43656
31
0.00000
0
LINE
5
77
330
50
100
AcDbEntity
8
0
100
AcDbLine
10
-22.99363
20
-63.43656
11
-11.13728
21
-42.90076
62
3
0
SPLINE
5
78
330
50
100
AcDbEntity
8
0
100
AcDbSpline
70
0
71
3
62
3
74
2
12
0.46875
22
0.81190
32
0.00000
13
-0.93750
23
0.00000
33
0.00000
11
-11.13728
21
-42.90076
31
0.00000
11
-12.07478
21
-41.27697
31
0.00000
0
LINE
5
79
330
50
100
AcDbEntity
8
0
100
AcDbLine
10
-12.07478
20
-41.27697
11
-15.46508
21
-41.27697
62
3
0
SPLINE
5
7A
330
50
100
AcDbEntity
8
0
100
AcDbSpline
70
0
71
3
62
3
74
2
12
-0.93750
22
0.00000
32
0.00000
13
0.46875
23
0.81190
33
0.00000
11
-15.46508
21
-41.27697
31
0.00000
11
-16.40258
21
-39.65317
31
0.00000
0
LINE
5
7B
330
50
100
AcDbEntity
8
0
100
AcDbLine
10
-16.40258
20
-39.65317
11
-5.79454
21
-21.27950
62
3
0
SPLINE
5
7C
330
50
100
AcDbEntity
8
0
100
AcDbSpline
70
0
71
3
62
3
74
2
12
0.46875
22
0.81190
32
0.00000
13
-0.93750
23
0.00000
33
0.00000
11
-5.79454
21
-21.27950
31
0.00000
11
-6.73204
21
-19.65570
31
0.00000
0
LINE
5
7D
330
50
100
AcDbEntity
8
0
100
AcDbLine
10
-6.73204
20
-19.65570
11
-9.47322
21
-19.65570
62
3
0
SPLINE
5
7E
330
50
100
AcDbEntity
8
0
100
AcDbSpline
70
0
71
3
62
3
74
2
12
-0.93750
22
0.00000
32
0.00000
13
0.46875
23
0.81190
33
0.00000
11
-9.47322
21
-19.65570
31
0.00000
11
-10.41072
21
-18.03190
31
0.00000
0
LINE
5
7F
330
50
100
AcDbEntity
8
0
100
AcDbLine
10
-10.41072
20
-18.03190
11
-2.48750
21
-4.30848
62
3
0
SPLINE
5
80
330
50
100
AcDbEntity
8
0
100
AcDbSpline
70
0
71
3
62
3
74
2
12
0.46875
22
0.81190
32
0.00000
13
0.00000
23
-0.93750
33
0.00000
11
-2.48750
21
-4.30848
31
0.00000
11
-1.55000
21
-4.55968
31
0.00000
0
LINE
5
81
330
50
100
AcDbEntity
8
0
100
AcDbLine
10
-1.55000
20
-4.55968
11
-1.55000
21
-75.00000
62
3
0
LINE
5
82
330
50
100
AcDbEntity
8
0
100
AcDbLine
10
-1.55000
20
-75.00000
11
0.00000
21
-75.00000
62
3
0
ENDBLK
5
83
330
50
100
AcDbEntity
8
0
100
AcDbBlockEnd
0
BLOCK
5
86
330
85
100
AcDbEntity
8
0
100
AcDbBlockBegin
2
base
70
0
10
0.00000
20
0.00000
30
0.00000
3
base
1

0
LINE
5
87
330
85
100
AcDbEntity
8
0
100
AcDbLine
10
20.81862
20
0.82981
11
10.78282
21
5.78277
0
SPLINE
5
88
330
85
100
AcDbEntity
8
0
100
AcDbSpline
70
0
71
3
74
2
12
-0.84069
22
0.41491
32
0.00000
13
-0.13481
23
0.92776
33
0.00000
11
10.78282
21
5.78277
31
0.00000
11
8.83182
21
8.46810
31
0.00000
0
LINE
5
89
330
85
100
AcDbEntity
8
0
100
AcDbLine
10
8.83182
20
8.46810
11
7.22250
21
19.54326
0
SPLINE
5
8A
330
85
100
AcDbEntity
8
0
100
AcDbSpline
70
0
71
3
74
2
12
-0.13481
22
0.92776
32
0.00000
13
-0.65439
23
-0.67133
33
0.00000
11
7.22250
21
19.54326
31
0.00000
11
5.64411
21
20.05611
31
0.00000
0
LINE
5
8B
330
85
100
AcDbEntity
8
0
100
AcDbLine
10
5.64411
20
20.05611
11
-2.16767
21
12.04205
0
SPLINE
5
8C
330
85
100
AcDbEntity
8
0
100
AcDbSpline
70
0
71
3
74
2
12
-0.65439
22
-0.67133
32
0.00000
13
-0.92401
23
0.15848
33
0.00000
11
-2.16767
21
12.04205
31
0.00000
11
-5.32446
21
11.01635
31
0.00000
0
LINE
5
8D
330
85
100
AcDbEntity
8
0
100
AcDbLine
10
-5.32446
20
11.01635
11
-16.35487
21
12.90821
0
SPLINE
5
8E
330
85
100
AcDbEntity
8
0
100
AcDbSpline
70
0
71
3
74
2
12
-0.92401
22
0.15848
32
0.00000
13
0.43626
23
-0.82981
33
0.00000
11
-16.35487
21
12.90821
31
0.00000
11
-17.33037
21
11.56555
31
0.00000
0
LINE
5
8F
330
85
100
AcDbEntity
8
0
100
AcDbLine
10
-17.33037
20
11.56555
11
-12.12251
21
1.65962
0
SPLINE
5
90
330
85
100
AcDbEntity
8
0
100
AcDbSpline
70
0
71
3
74
2
12
0.43626
22
-0.82981
32
0.00000
13
-0.43626
23
-0.82981
33
0.00000
11
-12.12251
21
1.65962
31
0.00000
11
-12.12251
21
-1.65962
31
0.00000
0
LINE
5
91
330
85
100
AcDbEntity
8
0
100
AcDbLine
10
-12.12251
20
-1.65962
11
-17.33037
21
-11.56555
0
SPLINE
5
92
330
85
100
AcDbEntity
8
0
100
AcDbSpline
70
0
71
3
74
2
12
-0.43626
22
-0.82981
32
0.00000
13
0.92401
23
0.15848
33
0.00000
11
-17.33037
21
-11.56555
31
0.00000
11
-16.35487
21
-12.90821
31
0.00000
0
LINE
5
93
330
85
100
AcDbEntity
8
0
100
AcDbLine
10
-16.35487
20
-12.90821
11
-5.32446
21
-11.01635
0
SPLINE
5
94
330
85
100
AcDbEntity
8
0
100
AcDbSpline
70
0
71
3
74
2
12
0.92401
22
0.15848
32
0.00000
13
0.65439
23
-0.67133
33
0.00000
11
-5.32446
21
-11.01635
31
0.00000
11
-2.16767
21
-12.04205
31
0.00000
0
LINE
5
95
330
85
100
AcDbEntity
8
0
100
AcDbLine
10
-2.16767
20
-12.04205
11
5.64411
21
-20.05611
0
SPLINE
5
96
330
85
100
AcDbEntity
8
0
100
AcDbSpline
70
0
71
3
74
2
12
0.65439
22
-0.67133
32
0.00000
13
0.13481
23
0.92776
33
0.00000
11
5.64411
21
-20.05611
31
0.00000
11
7.22250
21
-19.54326
31
0.00000
0
LINE
5
97
330
85
100
AcDbEntity
8
0
100
AcDbLine
10
7.22250
20
-19.54326
11
8.83182
21
-8.46810
0
SPLINE
5
98
330
85
100
AcDbEntity
8
0
100
AcDbSpline
70
0
71
3
74
2
12
0.13481
22
0.92776
32
0.00000
13
0.84069
23
0.41491
33
0.00000
11
8.83182
21
-8.46810
31
0.00000
11
10.78282
21
-5.78277
31
0.00000
0
LINE
5
99
330
85
100
AcDbEntity
8
0
100
AcDbLine
10
10.78282
20
-5.78277
11
20.81862
21
-0.82981
0
SPLINE
5
9A
330
85
100
AcDbEntity
8
0
100
AcDbSpline
70
0
71
3
74
2
12
0.84069
22
0.41491
32
0.00000
13
-0.84069
23
0.41491
33
0.00000
11
20.81862
21
-0.82981
31
0.00000
11
20.81862
21
0.82981
31
0.00000
0
POLYLINE
5
9B
330
85
100
AcDbEntity
8
0
100
AcDb2dPolyline
10
0.00000
20
0.00000
70
1
66
1
62
6
0
VERTEX
5
9C
330
85
100
AcDbEntity
8
0
100
AcDbVertex
100
AcDb2dVertex
10
-1.55000
20
7.50000
0
VERTEX
5
9D
330
85
100
AcDbEntity
8
0
100
AcDbVertex
100
AcDb2dVertex
10
-1.55000
20
1.55000
0
VERTEX
5
9E
330
85
100
AcDbEntity
8
0
100
AcDbVertex
100
AcDb2dVertex
10
-7.50000
20
1.55000
0
VERTEX
5
9F
330
85
100
AcDbEntity
8
0
100
AcDbVertex
100
AcDb2dVertex
10
-7.50000
20
-1.55000
0
VERTEX
5
A0
330
85
100
AcDbEntity
8
0
100
AcDbVertex
100
AcDb2dVertex
10
-1.55000
20
-1.55000
0
VERTEX
5
A1
330
85
100
AcDbEntity
8
0
100
AcDbVertex
100
AcDb2dVertex
10
-1.55000
20
-7.50000
0
VERTEX
5
A2
330
85
100
AcDbEntity
8
0
100
AcDbVertex
100
AcDb2dVertex
10
1.55000
20
-7.50000
0
VERTEX
5
A3
330
85
100
AcDbEntity
8
0
100
AcDbVertex
100
AcDb2dVertex
10
1.55000
20
-1.55000
0
VERTEX
5
A4
330
85
100
AcDbEntity
8
0
100
AcDbVertex
100
AcDb2dVertex
10
7.50000
20
-1.55000
0
VERTEX
5
A5
330
85
100
AcDbEntity
8
0
100
AcDbVertex
100
AcDb2dVertex
10
7.50000
20
1.55000
0
VERTEX
5
A6
330
85
100
AcDbEntity
8
0
100
AcDbVertex
100
AcDb2dVertex
10
1.55000
20
1.55000
0
VERTEX
5
A7
330
85
100
AcDbEntity
8
0
100
AcDbVertex
100
AcDb2dVertex
10
1.55000
20
7.50000
0
VERTEX
5
A8
330
85
100
AcDbEntity
8
0
100
AcDbVertex
100
AcDb2dVertex
10
-1.55000
20
7.50000
0
SEQEND
5
A9
330
85
100
AcDbEntity
0
ENDBLK
5
AA
330
85
100
AcDbEntity
8
0
100
AcDbBlockEnd
0
BLOCK
5
AD
330
AC
100
AcDbEntity
8
0
100
AcDbBlockBegin
2
star1
70
0
10
0.00000
20
0.00000
30
0.00000
3
star1
1

0
LINE
5
AE
330
AC
100
AcDbEntity
8
0
100
AcDbLine
10
3.81289
20
-12.60412
11
1.55000
21
-8.68468
62
2
0
LINE
5
AF
330
AC
100
AcDbEntity
8
0
100
AcDbLine
10
1.55000
20
-8.68468
11
1.55000
21
0.00000
62
2
0
LINE
5
B0
330
AC
100
AcDbEntity
8
0
100
AcDbLine
10
1.55000
20
0.00000
11
-1.55000
21
0.00000
62
2
0
LINE
5
B1
330
AC
100
AcDbEntity
8
0
100
AcDbLine
10
-1.55000
20
0.00000
11
-1.55000
21
-8.68468
62
2
0
LINE
5
B2
330
AC
100
AcDbEntity
8
0
100
AcDbLine
10
-1.55000
20
-8.68468
11
-3.81289
21
-12.60412
62
2
0
SPLINE
5
B3
330
AC
100
AcDbEntity
8
0
100
AcDbSpline
70
0
71
3
62
2
74
2
12
-0.46875
22
-0.81190
32
0.00000
13
0.00923
23
0.93745
33
0.00000
11
-3.81289
21
-12.60412
31
0.00000
11
-4.73194
21
-12.35301
31
0.00000
0
LINE
5
B4
330
AC
100
AcDbEntity
8
0
100
AcDbLine
10
-4.73194
20
-12.35301
11
-4.66616
21
-5.66948
62
2
0
SPLINE
5
B5
330
AC
100
AcDbEntity
8
0
100
AcDbSpline
70
0
71
3
62
2
74
2
12
0.00923
22
0.93745
32
0.00000
13
-0.92035
23
0.17851
33
0.00000
11
-4.66616
21
-5.66948
31
0.00000
11
-6.48840
21
-3.43755
31
0.00000
0
LINE
5
B6
330
AC
100
AcDbEntity
8
0
100
AcDbLine
10
-6.48840
20
-3.43755
11
-13.04997
21
-2.16484
62
2
0
SPLINE
5
B7
330
AC
100
AcDbEntity
8
0
100
AcDbSpline
70
0
71
3
62
2
74
2
12
-0.92035
22
0.17851
32
0.00000
13
0.85089
23
0.39355
33
0.00000
11
-13.04997
21
-2.16484
31
0.00000
11
-13.18887
21
-1.02071
31
0.00000
0
LINE
5
B8
330
AC
100
AcDbEntity
8
0
100
AcDbLine
10
-13.18887
20
-1.02071
11
-7.12247
21
1.78511
62
2
0
SPLINE
5
B9
330
AC
100
AcDbEntity
8
0
100
AcDbSpline
70
0
71
3
62
2
74
2
12
0.85089
22
0.39355
32
0.00000
13
-0.23328
23
0.90801
33
0.00000
11
-7.12247
21
1.78511
31
0.00000
11
-5.88723
21
4.38824
31
0.00000
0
LINE
5
BA
330
AC
100
AcDbEntity
8
0
100
AcDbLine
10
-5.88723
20
4.38824
11
-7.55037
21
10.86187
62
2
0
SPLINE
5
BB
330
AC
100
AcDbEntity
8
0
100
AcDbSpline
70
0
71
3
62
2
74
2
12
-0.23328
22
0.90801
32
0.00000
13
0.72033
23
-0.60002
33
0.00000
11
-7.55037
21
10.86187
31
0.00000
11
-6.57625
21
11.47785
31
0.00000
0
LINE
5
BC
330
AC
100
AcDbEntity
8
0
100
AcDbLine
10
-6.57625
20
11.47785
11
-1.44067
21
7.20004
62
2
0
SPLINE
5
BD
330
AC
100
AcDbEntity
8
0
100
AcDbSpline
70
0
71
3
62
2
74
2
12
0.72033
22
-0.60002
32
0.00000
13
0.72033
23
0.60002
33
0.00000
11
-1.44067
21
7.20004
31
0.00000
11
1.44067
21
7.20004
31
0.00000
0
LINE
5
BE
330
AC
100
AcDbEntity
8
0
100
AcDbLine
10
1.44067
20
7.20004
11
6.57625
21
11.47785
62
2
0
SPLINE
5
BF
330
AC
100
AcDbEntity
8
0
100
AcDbSpline
70
0
71
3
62
2
74
2
12
0.72033
22
0.60002
32
0.00000
13
-0.23328
23
-0.90801
33
0.00000
11
6.57625
21
11.47785
31
0.00000
11
7.55037
21
10.86187
31
0.00000
0
LINE
5
C0
330
AC
100
AcDbEntity
8
0
100
AcDbLine
10
7.55037
20
10.86187
11
5.88723
21
4.38824
62
2
0
SPLINE
5
C1
330
AC
100
AcDbEntity
8
0
100
AcDbSpline
70
0
71
3
62
2
74
2
12
-0.23328
22
-0.90801
32
0.00000
13
0.85089
23
-0.39355
33
0.00000
11
5.88723
21
4.38824
31
0.00000
11
7.12247
21
1.78511
31
0.00000
0
LINE
5
C2
330
AC
100
AcDbEntity
8
0
100
AcDbLine
10
7.12247
20
1.78511
11
13.18887
21
-1.02071
62
2
0
SPLINE
5
C3
330
AC
100
AcDbEntity
8
0
100
AcDbSpline
70
0
71
3
62
2
74
2
12
0.85089
22
-0.39355
32
0.00000
13
-0.92035
23
-0.17851
33
0.00000
11
13.18887
21
-1.02071
31
0.00000
11
13.04997
21
-2.16484
31
0.00000
0
LINE
5
C4
330
AC
100
AcDbEntity
8
0
100
AcDbLine
10
13.04997
20
-2.16484
11
6.48840
21
-3.43755
62
2
0
SPLINE
5
C5
330
AC
100
AcDbEntity
8
0
100
AcDbSpline
70
0
71
3
62
2
74
2
12
-0.92035
22
-0.17851
32
0.00000
13
0.00923
23
-0.93745
33
0.00000
11
6.48840
21
-3.43755
31
0.00000
11
4.66616
21
-5.66948
31
0.00000
0
LINE
5
C6
330
AC
100
AcDbEntity
8
0
100
AcDbLine
10
4.66616
20
-5.66948
11
4.73194
21
-12.35301
62
2
0
SPLINE
5
C7
330
AC
100
AcDbEntity
8
0
100
AcDbSpline
70
0
71
3
62
2
74
2
12
0.00923
22
-0.93745
32
0.00000
13
-0.46875
23
0.81190
33
0.00000
11
4.73194
21
-12.35301
31
0.00000
11
3.81289
21
-12.60412
31
0.00000
0
ENDBLK
5
C8
330
AC
100
AcDbEntity
8
0
100
AcDbBlockEnd
0
BLOCK
5
CB
330
CA
100
AcDbEntity
8
0
100
AcDbBlockBegin
2
star2
70
0
10
0.00000
20
0.00000
30
0.00000
3
star2
1

0
LINE
5
CC
330
CA
100
AcDbEntity
8
0
100
AcDbLine
10
3.81289
20
-12.60412
11
0.93750
21
-7.62380
62
2
0
SPLINE
5
CD
330
CA
100
AcDbEntity
8
0
100
AcDbSpline
70
0
71
3
62
2
74
2
12
-0.46875
22
0.81190
32
0.00000
13
-0.46875
23
-0.81190
33
0.00000
11
0.93750
21
-7.62380
31
0.00000
11
-0.93750
21
-7.62380
31
0.00000
0
LINE
5
CE
330
CA
100
AcDbEntity
8
0
100
AcDbLine
10
-0.93750
20
-7.62380
11
-3.81289
21
-12.60412
62
2
0
SPLINE
5
CF
330
CA
100
AcDbEntity
8
0
100
AcDbSpline
70
0
71
3
62
2
74
2
12
-0.46875
22
-0.81190
32
0.00000
13
0.00923
23
0.93745
33
0.00000
11
-3.81289
21
-12.60412
31
0.00000
11
-4.73194
21
-12.35301
31
0.00000
0
LINE
5
D0
330
CA
100
AcDbEntity
8
0
100
AcDbLine
10
-4.73194
20
-12.35301
11
-4.66616
21
-5.66948
62
2
0
SPLINE
5
D1
330
CA
100
AcDbEntity
8
0
100
AcDbSpline
70
0
71
3
62
2
74
2
12
0.00923
22
0.93745
32
0.00000
13
-0.92035
23
0.17851
33
0.00000
11
-4.66616
21
-5.66948
31
0.00000
11
-6.48840
21
-3.43755
31
0.00000
0
LINE
5
D2
330
CA
100
AcDbEntity
8
0
100
AcDbLine
10
-6.48840
20
-3.43755
11
-13.04997
21
-2.16484
62
2
0
SPLINE
5
D3
330
CA
100
AcDbEntity
8
0
100
AcDbSpline
70
0
71
3
62
2
74
2
12
-0.92035
22
0.17851
32
0.00000
13
0.85089
23
0.39355
33
0.00000
11
-13.04997
21
-2.16484
31
0.00000
11
-13.18887
21
-1.02071
31
0.00000
0
LINE
5
D4
330
CA
100
AcDbEntity
8
0
100
AcDbLine
10
-13.18887
20
-1.02071
11
-7.12247
21
1.78511
62
2
0
SPLINE
5
D5
330
CA
100
AcDbEntity
8
0
100
AcDbSpline
70
0
71
3
62
2
74
2
12
0.85089
22
0.39355
32
0.00000
13
-0.23328
23
0.90801
33
0.00000
11
-7.12247
21
1.78511
31
0.00000
11
-5.88723
21
4.38824
31
0.00000
0
LINE
5
D6
330
CA
100
AcDbEntity
8
0
100
AcDbLine
10
-5.88723
20
4.38824
11
-7.55037
21
10.86187
62
2
0
SPLINE
5
D7
330
CA
100
AcDbEntity
8
0
100
AcDbSpline
70
0
71
3
62
2
74
2
12
-0.23328
22
0.90801
32
0.00000
13
0.72033
23
-0.60002
33
0.00000
11
-7.55037
21
10.86187
31
0.00000
11
-6.57625
21
11.47785
31
0.00000
0
LINE
5
D8
330
CA
100
AcDbEntity
8
0
100
AcDbLine
10
-6.57625
20
11.47785
11
-1.55000
21
7.29111
62
2
0
LINE
5
D9
330
CA
100
AcDbEntity
8
0
100
AcDbLine
10
-1.55000
20
7.29111
11
-1.55000
21
0.00000
62
2
0
LINE
5
DA
330
CA
100
AcDbEntity
8
0
100
AcDbLine
10
-1.55000
20
0.00000
11
1.55000
21
0.00000
62
2
0
LINE
5
DB
330
CA
100
AcDbEntity
8
0
100
AcDbLine
10
1.55000
20
0.00000
11
1.55000
21
7.29111
62
2
0
LINE
5
DC
330
CA
100
AcDbEntity
8
0
100
AcDbLine
10
1.55000
20
7.29111
11
6.57625
21
11.47785
62
2
0
SPLINE
5
DD
330
CA
100
AcDbEntity
8
0
100
AcDbSpline
70
0
71
3
62
2
74
2
12
0.72033
22
0.60002
32
0.00000
13
-0.23328
23
-0.90801
33
0.00000
11
6.57625
21
11.47785
31
0.00000
11
7.55037
21
10.86187
31
0.00000
0
LINE
5
DE
330
CA
100
AcDbEntity
8
0
100
AcDbLine
10
7.55037
20
10.86187
11
5.88723
21
4.38824
62
2
0
SPLINE
5
DF
330
CA
100
AcDbEntity
8
0
100
AcDbSpline
70
0
71
3
62
2
74
2
12
-0.23328
22
-0.90801
32
0.00000
13
0.85089
23
-0.39355
33
0.00000
11
5.88723
21
4.38824
31
0.00000
11
7.12247
21
1.78511
31
0.00000
0
LINE
5
E0
330
CA
100
AcDbEntity
8
0
100
AcDbLine
10
7.12247
20
1.78511
11
13.18887
21
-1.02071
62
2
0
SPLINE
5
E1
330
CA
100
AcDbEntity
8
0
100
AcDbSpline
70
0
71
3
62
2
74
2
12
0.85089
22
-0.39355
32
0.00000
13
-0.92035
23
-0.17851
33
0.00000
11
13.18887
21
-1.02071
31
0.00000
11
13.04997
21
-2.16484
31
0.00000
0
LINE
5
E2
330
CA
100
AcDbEntity
8
0
100
AcDbLine
10
13.04997
20
-2.16484
11
6.48840
21
-3.43755
62
2
0
SPLINE
5
E3
330
CA
100
AcDbEntity
8
0
100
AcDbSpline
70
0
71
3
62
2
74
2
12
-0.92035
22
-0.17851
32
0.00000
13
0.00923
23
-0.93745
33
0.00000
11
6.48840
21
-3.43755
31
0.00000
11
4.66616
21
-5.66948
31
0.00000
0
LINE
5
E4
330
CA
100
AcDbEntity
8
0
100
AcDbLine
10
4.66616
20
-5.66948
11
4.73194
21
-12.35301
62
2
0
SPLINE
5
E5
330
CA
100
AcDbEntity
8
0
100
AcDbSpline
70
0
71
3
62
2
74
2
12
0.00923
22
-0.93745
32
0.00000
13
-0.46875
23
0.81190
33
0.00000
11
4.73194
21
-12.35301
31
0.00000
11
3.81289
21
-12.60412
31
0.00000
0
ENDBLK
5
E6
330
CA
100
AcDbEntity
8
0
100
AcDbBlockEnd
0
BLOCK
5
E9
330
E8
100
AcDbEntity
8
0
100
AcDbBlockBegin
2
mini star
70
0
10
0.00000
20
0.00000
30
0.00000
3
mini star
1

0
LINE
5
EA
330
E8
100
AcDbEntity
8
0
100
AcDbLine
10
3.39141
20
0.10973
11
1.65763
21
0.64027
62
2
0
SPLINE
5
EB
330
E8
100
AcDbEntity
8
0
100
AcDbSpline
70
0
71
3
62
2
74
2
12
-0.17929
22
0.05486
32
0.00000
13
0.04213
23
0.18270
33
0.00000
11
1.65763
21
0.64027
31
0.00000
11
1.38330
21
1.11541
31
0.00000
0
LINE
5
EC
330
E8
100
AcDbEntity
8
0
100
AcDbLine
10
1.38330
20
1.11541
11
1.79073
21
2.88219
62
2
0
SPLINE
5
ED
330
E8
100
AcDbEntity
8
0
100
AcDbSpline
70
0
71
3
62
2
74
2
12
0.04213
22
0.18270
32
0.00000
13
-0.13716
23
-0.12784
33
0.00000
11
1.79073
21
2.88219
31
0.00000
11
1.60068
21
2.99191
31
0.00000
0
LINE
5
EE
330
E8
100
AcDbEntity
8
0
100
AcDbLine
10
1.60068
20
2.99191
11
0.27432
21
1.75568
62
2
0
SPLINE
5
EF
330
E8
100
AcDbEntity
8
0
100
AcDbSpline
70
0
71
3
62
2
74
2
12
-0.13716
22
-0.12784
32
0.00000
13
-0.13716
23
0.12784
33
0.00000
11
0.27432
21
1.75568
31
0.00000
11
-0.27432
21
1.75568
31
0.00000
0
LINE
5
F0
330
E8
100
AcDbEntity
8
0
100
AcDbLine
10
-0.27432
20
1.75568
11
-1.60068
21
2.99191
62
2
0
SPLINE
5
F1
330
E8
100
AcDbEntity
8
0
100
AcDbSpline
70
0
71
3
62
2
74
2
12
-0.13716
22
0.12784
32
0.00000
13
0.04213
23
-0.18270
33
0.00000
11
-1.60068
21
2.99191
31
0.00000
11
-1.79073
21
2.88219
31
0.00000
0
LINE
5
F2
330
E8
100
AcDbEntity
8
0
100
AcDbLine
10
-1.79073
20
2.88219
11
-1.38330
21
1.11541
62
2
0
SPLINE
5
F3
330
E8
100
AcDbEntity
8
0
100
AcDbSpline
70
0
71
3
62
2
74
2
12
0.04213
22
-0.18270
32
0.00000
13
-0.17929
23
-0.05486
33
0.00000
11
-1.38330
21
1.11541
31
0.00000
11
-1.65763
21
0.64027
31
0.00000
0
LINE
5
F4
330
E8
100
AcDbEntity
8
0
100
AcDbLine
10
-1.65763
20
0.64027
11
-3.39141
21
0.10973
62
2
0
SPLINE
5
F5
330
E8
100
AcDbEntity
8
0
100
AcDbSpline
70
0
71
3
62
2
74
2
12
-0.17929
22
-0.05486
32
0.00000
13
0.17929
23
-0.05486
33
0.00000
11
-3.39141
21
0.10973
31
0.00000
11
-3.39141
21
-0.10973
31
0.00000
0
LINE
5
F6
330
E8
100
AcDbEntity
8
0
100
AcDbLine
10
-3.39141
20
-0.10973
11
-1.65763
21
-0.64027
62
2
0
SPLINE
5
F7
330
E8
100
AcDbEntity
8
0
100
AcDbSpline
70
0
71
3
62
2
74
2
12
0.17929
22
-0.05486
32
0.00000
13
-0.04213
23
-0.18270
33
0.00000
11
-1.65763
21
-0.64027
31
0.00000
11
-1.38330
21
-1.11541
31
0.00000
0
LINE
5
F8
330
E8
100
AcDbEntity
8
0
100
AcDbLine
10
-1.38330
20
-1.11541
11
-1.79073
21
-2.88219
62
2
0
SPLINE
5
F9
330
E8
100
AcDbEntity
8
0
100
AcDbSpline
70
0
71
3
62
2
74
2
12
-0.04213
22
-0.18270
32
0.00000
13
0.13716
23
0.12784
33
0.00000
11
-1.79073
21
-2.88219
31
0.00000
11
-1.60068
21
-2.99191
31
0.00000
0
LINE
5
FA
330
E8
100
AcDbEntity
8
0
100
AcDbLine
10
-1.60068
20
-2.99191
11
-0.27432
21
-1.75568
62
2
0
SPLINE
5
FB
330
E8
100
AcDbEntity
8
0
100
AcDbSpline
70
0
71
3
62
2
74
2
12
0.13716
22
0.12784
32
0.00000
13
0.13716
23
-0.12784
33
0.00000
11
-0.27432
21
-1.75568
31
0.00000
11
0.27432
21
-1.75568
31
0.00000
0
LINE
5
FC
330
E8
100
AcDbEntity
8
0
100
AcDbLine
10
0.27432
20
-1.75568
11
1.60068
21
-2.99191
62
2
0
SPLINE
5
FD
330
E8
100
AcDbEntity
8
0
100
AcDbSpline
70
0
71
3
62
2
74
2
12
0.13716
22
-0.12784
32
0.00000
13
-0.04213
23
0.18270
33
0.00000
11
1.60068
21
-2.99191
31
0.00000
11
1.79073
21
-2.88219
31
0.00000
0
LINE
5
FE
330
E8
100
AcDbEntity
8
0
100
AcDbLine
10
1.79073
20
-2.88219
11
1.38330
21
-1.11541
62
2
0
SPLINE
5
FF
330
E8
100
AcDbEntity
8
0
100
AcDbSpline
70
0
71
3
62
2
74
2
12
-0.04213
22
0.18270
32
0.00000
13
0.17929
23
0.05486
33
0.00000
11
1.38330
21
-1.11541
31
0.00000
11
1.65763
21
-0.64027
31
0.00000
0
LINE
5
100
330
E8
100
AcDbEntity
8
0
100
AcDbLine
10
1.65763
20
-0.64027
11
3.39141
21
-0.10973
62
2
0
SPLINE
5
101
330
E8
100
AcDbEntity
8
0
100
AcDbSpline
70
0
71
3
62
2
74
2
12
0.17929
22
0.05486
32
0.00000
13
-0.17929
23
0.05486
33
0.00000
11
3.39141
21
-0.10973
31
0.00000
11
3.39141
21
0.10973
31
0.00000
0
ENDBLK
5
102
330
E8
100
AcDbEntity
8
0
100
AcDbBlockEnd
0
ENDSEC
0
SECTION
2
ENTITIES
999
0
0
INSERT
5
4F
330
16
100
AcDbEntity
8
0
100
AcDbBlockReference
10
39.15645
20
150.00000
2
tree1
70
1
71
1
0
INSERT
5
84
330
16
100
AcDbEntity
8
0
100
AcDbBlockReference
10
117.46935
20
150.00000
2
tree2
70
1
71
1
0
INSERT
5
AB
330
16
100
AcDbEntity
8
0
100
AcDbBlockReference
10
78.31290
20
127.50000
2
base
70
1
71
1
0
INSERT
5
C9
330
16
100
AcDbEntity
8
0
100
AcDbBlockReference
10
78.31290
20
90.00000
2
star1
70
1
71
1
0
INSERT
5
E7
330
16
100
AcDbEntity
8
0
100
AcDbBlockReference
10
78.31290
20
15.00000
2
star2
70
1
71
1
0
INSERT
5
103
330
16
100
AcDbEntity
8
0
100
AcDbBlockReference
10
70.81290
20
71.25000
2
mini star
70
1
71
1
0
INSERT
5
104
330
16
100
AcDbEntity
8
0
100
AcDbBlockReference
10
78.31290
20
71.25000
2
mini star
70
1
71
1
0
INSERT
5
105
330
16
100
AcDbEntity
8
0
100
AcDbBlockReference
10
85.81290
20
71.25000
2
mini star
70
1
71
1
0
INSERT
5
106
330
16
100
AcDbEntity
8
0
100
AcDbBlockReference
10
78.31290
20
63.75000
2
mini star
70
1
71
1
0
INSERT
5
107
330
16
100
AcDbEntity
8
0
100
AcDbBlockReference
10
78.31290
20
56.25000
2
mini star
70
1
71
1
0
INSERT
5
108
330
16
100
AcDbEntity
8
0
100
AcDbBlockReference
10
78.31290
20
48.75000
2
mini star
70
1
71
1
0
ENDSEC
0
SECTION
2
OBJECTS
999
0
0
DICTIONARY
5
A
330
0
100
AcDbDictionary
280
0
281
1
3
ACAD_IMAGE_DICT
350
B
3
ACAD_GROUP
350
C
3
ACAD_IMAGE_VARS
350
D
0
DICTIONARY
5
B
330
A
100
AcDbDictionary
280
0
281
1
0
DICTIONARY
5
C
330
A
100
AcDbDictionary
280
0
281
1
3
mini stars
350
109
0
RASTERVARIABLES
5
D
330
A
100
AcDbRasterVariables
90
0
70
1
71
1
72
1
0
GROUP
5
109
102
{ACAD_REACTORS
330
C
102
}
100
AcDbGroup
71
1
300
mini stars
70
0
340
103
340
104
340
105
340
106
340
107
340
108
0
ENDSEC
0
EOF
