0
SECTION
2
HEADER
999
0
999
DXF file generated by DXFWriter.
9
$ACADVER
1
AC1027
9
$MEASUREMENT
70
1
9
$FINGERPRINTGUID
2
{b171f1da-83bc-4ac4-8059-3e7c65a765cf}
9
$VERSIONGUID
2
{08ed061c-a535-424b-bae0-f0e94546ad01}
9
$EXTMIN
10
-34.73649
20
-130.00000
9
$EXTMAX
10
106.64698
20
130.00000
9
$HANDSEED
5
FA
0
ENDSEC
0
SECTION
2
TABLES
999
0
0
TABLE
2
VPORT
5
1
330
0
100
AcDbSymbolTable
70
0
0
ENDTAB
0
TABLE
2
LTYPE
5
2
330
0
100
AcDbSymbolTable
70
6
0
LTYPE
5
F
330
2
100
AcDbSymbolTableRecord
100
AcDbLinetypeTableRecord
2
CONTINUOUS
3
CONTINUOUS
70
64
72
65
73
0
74
0
40
0.0000000000000000
3
CONTINUOUS
0
LTYPE
5
10
330
2
100
AcDbSymbolTableRecord
100
AcDbLinetypeTableRecord
2
DASHED
3
DASHED
70
64
72
65
73
2
74
0
40
2.0000000000000000
49
1.0000000000000000
74
0
49
-1.0000000000000000
74
0
3
DASHED
0
LTYPE
5
11
330
2
100
AcDbSymbolTableRecord
100
AcDbLinetypeTableRecord
2
DOTTED
3
DOTTED
70
64
72
65
73
2
74
0
40
0.2000000000000000
49
0.0000000000000000
74
0
49
-0.2000000000000000
74
0
3
DOTTED
0
LTYPE
5
12
330
2
100
AcDbSymbolTableRecord
100
AcDbLinetypeTableRecord
2
DASHDOTTED
3
DASHDOTTED
70
64
72
65
73
4
74
0
40
2.0000000000000000
49
1.0000000000000000
74
0
49
-0.5000000000000000
74
0
49
0.0000000000000000
74
0
49
-0.5000000000000000
74
0
3
DASHDOTTED
0
LTYPE
5
13
330
2
100
AcDbSymbolTableRecord
100
AcDbLinetypeTableRecord
2
BYLAYER
3
ByLayer
70
64
72
65
73
0
74
0
40
0.0000000000000000
3
ByLayer
0
LTYPE
5
14
330
2
100
AcDbSymbolTableRecord
100
AcDbLinetypeTableRecord
2
BYBLOCK
3
ByBlock
70
64
72
65
73
0
74
0
40
0.0000000000000000
3
ByBlock
0
ENDTAB
0
TABLE
2
LAYER
5
3
330
0
100
AcDbSymbolTable
70
1
0
LAYER
5
15
330
3
100
AcDbSymbolTableRecord
100
AcDbLayerTableRecord
2
0
70
64
62
7
6
CONTINUOUS
370
25
390
0
0
ENDTAB
0
TABLE
2
STYLE
5
4
330
0
100
AcDbSymbolTable
70
0
0
ENDTAB
0
TABLE
2
VIEW
5
5
330
0
100
AcDbSymbolTable
70
0
0
ENDTAB
0
TABLE
2
UCS
5
6
330
0
100
AcDbSymbolTable
70
0
0
ENDTAB
0
TABLE
2
APPID
5
7
330
0
100
AcDbSymbolTable
70
1
0
APPID
5
E
330
7
100
AcDbSymbolTableRecord
100
AcDbRegAppTableRecord
2
ACAD
70
0
0
ENDTAB
0
TABLE
2
DIMSTYLE
5
8
330
0
100
AcDbSymbolTable
100
AcDbDimStyleTable
70
0
0
ENDTAB
0
TABLE
2
BLOCK_RECORD
5
9
330
0
100
AcDbSymbolTable
70
8
0
BLOCK_RECORD
5
16
330
9
100
AcDbSymbolTableRecord
100
AcDbBlockTableRecord
2
*MODEL_SPACE
70
0
280
1
281
0
0
BLOCK_RECORD
5
19
330
9
100
AcDbSymbolTableRecord
100
AcDbBlockTableRecord
2
*PAPER_SPACE
70
0
280
1
281
0
0
BLOCK_RECORD
5
1C
330
9
100
AcDbSymbolTableRecord
100
AcDbBlockTableRecord
2
tree1
70
0
280
1
281
0
0
BLOCK_RECORD
5
48
330
9
100
AcDbSymbolTableRecord
100
AcDbBlockTableRecord
2
tree2
70
0
280
1
281
0
0
BLOCK_RECORD
5
75
330
9
100
AcDbSymbolTableRecord
100
AcDbBlockTableRecord
2
base
70
0
280
1
281
0
0
BLOCK_RECORD
5
9C
330
9
100
AcDbSymbolTableRecord
100
AcDbBlockTableRecord
2
star1
70
0
280
1
281
0
0
BLOCK_RECORD
5
BA
330
9
100
AcDbSymbolTableRecord
100
AcDbBlockTableRecord
2
star2
70
0
280
1
281
0
0
BLOCK_RECORD
5
D8
330
9
100
AcDbSymbolTableRecord
100
AcDbBlockTableRecord
2
mini star
70
0
280
1
281
0
0
ENDTAB
0
ENDSEC
0
SECTION
2
BLOCKS
999
0
0
BLOCK
5
17
330
16
100
AcDbEntity
8
0
100
AcDbBlockBegin
2
*MODEL_SPACE
70
0
10
0.00000
20
0.00000
30
0.00000
3
*MODEL_SPACE
1

0
ENDBLK
5
18
330
16
100
AcDbEntity
8
0
100
AcDbBlockEnd
0
BLOCK
5
1A
330
19
100
AcDbEntity
8
0
100
AcDbBlockBegin
2
*PAPER_SPACE
70
0
10
0.00000
20
0.00000
30
0.00000
3
*PAPER_SPACE
1

0
ENDBLK
5
1B
330
19
100
AcDbEntity
8
0
100
AcDbBlockEnd
0
BLOCK
5
1D
330
1C
100
AcDbEntity
8
0
100
AcDbBlockBegin
2
tree1
70
0
10
0.00000
20
0.00000
30
0.00000
3
tree1
1

0
LINE
5
1E
330
1C
100
AcDbEntity
8
0
100
AcDbLine
10
0.81250
20
-1.40729
11
12.12532
21
-21.00167
62
3
0
SPLINE
5
1F
330
1C
100
AcDbEntity
8
0
100
AcDbSpline
70
0
71
3
62
3
74
2
12
0.40625
22
-0.70365
32
0.00000
13
-0.81250
23
0.00000
33
0.00000
11
12.12532
21
-21.00167
31
0.00000
11
11.31282
21
-22.40896
31
0.00000
0
LINE
5
20
330
1C
100
AcDbEntity
8
0
100
AcDbLine
10
11.31282
20
-22.40896
11
7.16239
21
-22.40896
62
3
0
SPLINE
5
21
330
1C
100
AcDbEntity
8
0
100
AcDbSpline
70
0
71
3
62
3
74
2
12
-0.81250
22
0.00000
32
0.00000
13
0.40625
23
-0.70365
33
0.00000
11
7.16239
21
-22.40896
31
0.00000
11
6.34989
21
-23.81625
31
0.00000
0
LINE
5
22
330
1C
100
AcDbEntity
8
0
100
AcDbLine
10
6.34989
20
-23.81625
11
18.95649
21
-45.65153
62
3
0
SPLINE
5
23
330
1C
100
AcDbEntity
8
0
100
AcDbSpline
70
0
71
3
62
3
74
2
12
0.40625
22
-0.70365
32
0.00000
13
-0.81250
23
0.00000
33
0.00000
11
18.95649
21
-45.65153
31
0.00000
11
18.14399
21
-47.05882
31
0.00000
0
LINE
5
24
330
1C
100
AcDbEntity
8
0
100
AcDbLine
10
18.14399
20
-47.05882
11
13.25351
21
-47.05882
62
3
0
SPLINE
5
25
330
1C
100
AcDbEntity
8
0
100
AcDbSpline
70
0
71
3
62
3
74
2
12
-0.81250
22
0.00000
32
0.00000
13
0.40625
23
-0.70365
33
0.00000
11
13.25351
21
-47.05882
31
0.00000
11
12.44101
21
-48.46611
31
0.00000
0
LINE
5
26
330
1C
100
AcDbEntity
8
0
100
AcDbLine
10
12.44101
20
-48.46611
11
26.47078
21
-72.76638
62
3
0
SPLINE
5
27
330
1C
100
AcDbEntity
8
0
100
AcDbSpline
70
0
71
3
62
3
74
2
12
0.40625
22
-0.70365
32
0.00000
13
-0.81250
23
0.00000
33
0.00000
11
26.47078
21
-72.76638
31
0.00000
11
25.65828
21
-74.17367
31
0.00000
0
LINE
5
28
330
1C
100
AcDbEntity
8
0
100
AcDbLine
10
25.65828
20
-74.17367
11
19.95375
21
-74.17367
62
3
0
SPLINE
5
29
330
1C
100
AcDbEntity
8
0
100
AcDbSpline
70
0
71
3
62
3
74
2
12
-0.81250
22
0.00000
32
0.00000
13
0.40625
23
-0.70365
33
0.00000
11
19.95375
21
-74.17367
31
0.00000
11
19.14125
21
-75.58096
31
0.00000
0
LINE
5
2A
330
1C
100
AcDbEntity
8
0
100
AcDbLine
10
19.14125
20
-75.58096
11
34.73649
21
-102.59271
62
3
0
SPLINE
5
2B
330
1C
100
AcDbEntity
8
0
100
AcDbSpline
70
0
71
3
62
3
74
2
12
0.40625
22
-0.70365
32
0.00000
13
-0.81250
23
0.00000
33
0.00000
11
34.73649
21
-102.59271
31
0.00000
11
33.92399
21
-104.00000
31
0.00000
0
LINE
5
2C
330
1C
100
AcDbEntity
8
0
100
AcDbLine
10
33.92399
20
-104.00000
11
8.12500
21
-104.00000
62
3
0
SPLINE
5
2D
330
1C
100
AcDbEntity
8
0
100
AcDbSpline
70
0
71
3
62
3
74
2
12
-0.81250
22
0.00000
32
0.00000
13
0.00000
23
-0.81250
33
0.00000
11
8.12500
21
-104.00000
31
0.00000
11
6.50000
21
-105.62500
31
0.00000
0
LINE
5
2E
330
1C
100
AcDbEntity
8
0
100
AcDbLine
10
6.50000
20
-105.62500
11
6.50000
21
-130.00000
62
3
0
LINE
5
2F
330
1C
100
AcDbEntity
8
0
100
AcDbLine
10
6.50000
20
-130.00000
11
1.55000
21
-130.00000
62
3
0
LINE
5
30
330
1C
100
AcDbEntity
8
0
100
AcDbLine
10
1.55000
20
-130.00000
11
1.55000
21
-65.00000
62
3
0
LINE
5
31
330
1C
100
AcDbEntity
8
0
100
AcDbLine
10
1.55000
20
-65.00000
11
-1.55000
21
-65.00000
62
3
0
LINE
5
32
330
1C
100
AcDbEntity
8
0
100
AcDbLine
10
-1.55000
20
-65.00000
11
-1.55000
21
-130.00000
62
3
0
LINE
5
33
330
1C
100
AcDbEntity
8
0
100
AcDbLine
10
-1.55000
20
-130.00000
11
-6.50000
21
-130.00000
62
3
0
LINE
5
34
330
1C
100
AcDbEntity
8
0
100
AcDbLine
10
-6.50000
20
-130.00000
11
-6.50000
21
-105.62500
62
3
0
SPLINE
5
35
330
1C
100
AcDbEntity
8
0
100
AcDbSpline
70
0
71
3
62
3
74
2
12
0.00000
22
0.81250
32
0.00000
13
-0.81250
23
0.00000
33
0.00000
11
-6.50000
21
-105.62500
31
0.00000
11
-8.12500
21
-104.00000
31
0.00000
0
LINE
5
36
330
1C
100
AcDbEntity
8
0
100
AcDbLine
10
-8.12500
20
-104.00000
11
-33.92399
21
-104.00000
62
3
0
SPLINE
5
37
330
1C
100
AcDbEntity
8
0
100
AcDbSpline
70
0
71
3
62
3
74
2
12
-0.81250
22
0.00000
32
0.00000
13
0.40625
23
0.70365
33
0.00000
11
-33.92399
21
-104.00000
31
0.00000
11
-34.73649
21
-102.59271
31
0.00000
0
LINE
5
38
330
1C
100
AcDbEntity
8
0
100
AcDbLine
10
-34.73649
20
-102.59271
11
-19.14125
21
-75.58096
62
3
0
SPLINE
5
39
330
1C
100
AcDbEntity
8
0
100
AcDbSpline
70
0
71
3
62
3
74
2
12
0.40625
22
0.70365
32
0.00000
13
-0.81250
23
0.00000
33
0.00000
11
-19.14125
21
-75.58096
31
0.00000
11
-19.95375
21
-74.17367
31
0.00000
0
LINE
5
3A
330
1C
100
AcDbEntity
8
0
100
AcDbLine
10
-19.95375
20
-74.17367
11
-25.65828
21
-74.17367
62
3
0
SPLINE
5
3B
330
1C
100
AcDbEntity
8
0
100
AcDbSpline
70
0
71
3
62
3
74
2
12
-0.81250
22
0.00000
32
0.00000
13
0.40625
23
0.70365
33
0.00000
11
-25.65828
21
-74.17367
31
0.00000
11
-26.47078
21
-72.76638
31
0.00000
0
LINE
5
3C
330
1C
100
AcDbEntity
8
0
100
AcDbLine
10
-26.47078
20
-72.76638
11
-12.44101
21
-48.46611
62
3
0
SPLINE
5
3D
330
1C
100
AcDbEntity
8
0
100
AcDbSpline
70
0
71
3
62
3
74
2
12
0.40625
22
0.70365
32
0.00000
13
-0.81250
23
0.00000
33
0.00000
11
-12.44101
21
-48.46611
31
0.00000
11
-13.25351
21
-47.05882
31
0.00000
0
LINE
5
3E
330
1C
100
AcDbEntity
8
0
100
AcDbLine
10
-13.25351
20
-47.05882
11
-18.14399
21
-47.05882
62
3
0
SPLINE
5
3F
330
1C
100
AcDbEntity
8
0
100
AcDbSpline
70
0
71
3
62
3
74
2
12
-0.81250
22
0.00000
32
0.00000
13
0.40625
23
0.70365
33
0.00000
11
-18.14399
21
-47.05882
31
0.00000
11
-18.95649
21
-45.65153
31
0.00000
0
LINE
5
40
330
1C
100
AcDbEntity
8
0
100
AcDbLine
10
-18.95649
20
-45.65153
11
-6.34989
21
-23.81625
62
3
0
SPLINE
5
41
330
1C
100
AcDbEntity
8
0
100
AcDbSpline
70
0
71
3
62
3
74
2
12
0.40625
22
0.70365
32
0.00000
13
-0.81250
23
0.00000
33
0.00000
11
-6.34989
21
-23.81625
31
0.00000
11
-7.16239
21
-22.40896
31
0.00000
0
LINE
5
42
330
1C
100
AcDbEntity
8
0
100
AcDbLine
10
-7.16239
20
-22.40896
11
-11.31282
21
-22.40896
62
3
0
SPLINE
5
43
330
1C
100
AcDbEntity
8
0
100
AcDbSpline
70
0
71
3
62
3
74
2
12
-0.81250
22
0.00000
32
0.00000
13
0.40625
23
0.70365
33
0.00000
11
-11.31282
21
-22.40896
31
0.00000
11
-12.12532
21
-21.00167
31
0.00000
0
LINE
5
44
330
1C
100
AcDbEntity
8
0
100
AcDbLine
10
-12.12532
20
-21.00167
11
-0.81250
21
-1.40729
62
3
0
SPLINE
5
45
330
1C
100
AcDbEntity
8
0
100
AcDbSpline
70
0
71
3
62
3
74
2
12
0.40625
22
0.70365
32
0.00000
13
0.40625
23
-0.70365
33
0.00000
11
-0.81250
21
-1.40729
31
0.00000
11
0.81250
21
-1.40729
31
0.00000
0
ENDBLK
5
46
330
1C
100
AcDbEntity
8
0
100
AcDbBlockEnd
0
BLOCK
5
49
330
48
100
AcDbEntity
8
0
100
AcDbBlockBegin
2
tree2
70
0
10
0.00000
20
0.00000
30
0.00000
3
tree2
1

0
LINE
5
4A
330
48
100
AcDbEntity
8
0
100
AcDbLine
10
0.00000
20
-65.00000
11
1.55000
21
-65.00000
62
3
0
LINE
5
4B
330
48
100
AcDbEntity
8
0
100
AcDbLine
10
1.55000
20
-65.00000
11
1.55000
21
-4.30968
62
3
0
SPLINE
5
4C
330
48
100
AcDbEntity
8
0
100
AcDbSpline
70
0
71
3
62
3
74
2
12
0.00000
22
0.81250
32
0.00000
13
0.40625
23
-0.70365
33
0.00000
11
1.55000
21
-4.30968
31
0.00000
11
2.36250
21
-4.09197
31
0.00000
0
LINE
5
4D
330
48
100
AcDbEntity
8
0
100
AcDbLine
10
2.36250
20
-4.09197
11
12.12532
21
-21.00167
62
3
0
SPLINE
5
4E
330
48
100
AcDbEntity
8
0
100
AcDbSpline
70
0
71
3
62
3
74
2
12
0.40625
22
-0.70365
32
0.00000
13
-0.81250
23
0.00000
33
0.00000
11
12.12532
21
-21.00167
31
0.00000
11
11.31282
21
-22.40896
31
0.00000
0
LINE
5
4F
330
48
100
AcDbEntity
8
0
100
AcDbLine
10
11.31282
20
-22.40896
11
7.16239
21
-22.40896
62
3
0
SPLINE
5
50
330
48
100
AcDbEntity
8
0
100
AcDbSpline
70
0
71
3
62
3
74
2
12
-0.81250
22
0.00000
32
0.00000
13
0.40625
23
-0.70365
33
0.00000
11
7.16239
21
-22.40896
31
0.00000
11
6.34989
21
-23.81625
31
0.00000
0
LINE
5
51
330
48
100
AcDbEntity
8
0
100
AcDbLine
10
6.34989
20
-23.81625
11
18.95649
21
-45.65153
62
3
0
SPLINE
5
52
330
48
100
AcDbEntity
8
0
100
AcDbSpline
70
0
71
3
62
3
74
2
12
0.40625
22
-0.70365
32
0.00000
13
-0.81250
23
0.00000
33
0.00000
11
18.95649
21
-45.65153
31
0.00000
11
18.14399
21
-47.05882
31
0.00000
0
LINE
5
53
330
48
100
AcDbEntity
8
0
100
AcDbLine
10
18.14399
20
-47.05882
11
13.25351
21
-47.05882
62
3
0
SPLINE
5
54
330
48
100
AcDbEntity
8
0
100
AcDbSpline
70
0
71
3
62
3
74
2
12
-0.81250
22
0.00000
32
0.00000
13
0.40625
23
-0.70365
33
0.00000
11
13.25351
21
-47.05882
31
0.00000
11
12.44101
21
-48.46611
31
0.00000
0
LINE
5
55
330
48
100
AcDbEntity
8
0
100
AcDbLine
10
12.44101
20
-48.46611
11
26.47078
21
-72.76638
62
3
0
SPLINE
5
56
330
48
100
AcDbEntity
8
0
100
AcDbSpline
70
0
71
3
62
3
74
2
12
0.40625
22
-0.70365
32
0.00000
13
-0.81250
23
0.00000
33
0.00000
11
26.47078
21
-72.76638
31
0.00000
11
25.65828
21
-74.17367
31
0.00000
0
LINE
5
57
330
48
100
AcDbEntity
8
0
100
AcDbLine
10
25.65828
20
-74.17367
11
19.95375
21
-74.17367
62
3
0
SPLINE
5
58
330
48
100
AcDbEntity
8
0
100
AcDbSpline
70
0
71
3
62
3
74
2
12
-0.81250
22
0.00000
32
0.00000
13
0.40625
23
-0.70365
33
0.00000
11
19.95375
21
-74.17367
31
0.00000
11
19.14125
21
-75.58096
31
0.00000
0
LINE
5
59
330
48
100
AcDbEntity
8
0
100
AcDbLine
10
19.14125
20
-75.58096
11
34.73649
21
-102.59271
62
3
0
SPLINE
5
5A
330
48
100
AcDbEntity
8
0
100
AcDbSpline
70
0
71
3
62
3
74
2
12
0.40625
22
-0.70365
32
0.00000
13
-0.81250
23
0.00000
33
0.00000
11
34.73649
21
-102.59271
31
0.00000
11
33.92399
21
-104.00000
31
0.00000
0
LINE
5
5B
330
48
100
AcDbEntity
8
0
100
AcDbLine
10
33.92399
20
-104.00000
11
8.12500
21
-104.00000
62
3
0
SPLINE
5
5C
330
48
100
AcDbEntity
8
0
100
AcDbSpline
70
0
71
3
62
3
74
2
12
-0.81250
22
0.00000
32
0.00000
13
0.00000
23
-0.81250
33
0.00000
11
8.12500
21
-104.00000
31
0.00000
11
6.50000
21
-105.62500
31
0.00000
0
LINE
5
5D
330
48
100
AcDbEntity
8
0
100
AcDbLine
10
6.50000
20
-105.62500
11
6.50000
21
-130.00000
62
3
0
LINE
5
5E
330
48
100
AcDbEntity
8
0
100
AcDbLine
10
6.50000
20
-130.00000
11
-6.50000
21
-130.00000
62
3
0
LINE
5
5F
330
48
100
AcDbEntity
8
0
100
AcDbLine
10
-6.50000
20
-130.00000
11
-6.50000
21
-105.62500
62
3
0
SPLINE
5
60
330
48
100
AcDbEntity
8
0
100
AcDbSpline
70
0
71
3
62
3
74
2
12
0.00000
22
0.81250
32
0.00000
13
-0.81250
23
0.00000
33
0.00000
11
-6.50000
21
-105.62500
31
0.00000
11
-8.12500
21
-104.00000
31
0.00000
0
LINE
5
61
330
48
100
AcDbEntity
8
0
100
AcDbLine
10
-8.12500
20
-104.00000
11
-33.92399
21
-104.00000
62
3
0
SPLINE
5
62
330
48
100
AcDbEntity
8
0
100
AcDbSpline
70
0
71
3
62
3
74
2
12
-0.81250
22
0.00000
32
0.00000
13
0.40625
23
0.70365
33
0.00000
11
-33.92399
21
-104.00000
31
0.00000
11
-34.73649
21
-102.59271
31
0.00000
0
LINE
5
63
330
48
100
AcDbEntity
8
0
100
AcDbLine
10
-34.73649
20
-102.59271
11
-19.14125
21
-75.58096
62
3
0
SPLINE
5
64
330
48
100
AcDbEntity
8
0
100
AcDbSpline
70
0
71
3
62
3
74
2
12
0.40625
22
0.70365
32
0.00000
13
-0.81250
23
0.00000
33
0.00000
11
-19.14125
21
-75.58096
31
0.00000
11
-19.95375
21
-74.17367
31
0.00000
0
LINE
5
65
330
48
100
AcDbEntity
8
0
100
AcDbLine
10
-19.95375
20
-74.17367
11
-25.65828
21
-74.17367
62
3
0
SPLINE
5
66
330
48
100
AcDbEntity
8
0
100
AcDbSpline
70
0
71
3
62
3
74
2
12
-0.81250
22
0.00000
32
0.00000
13
0.40625
23
0.70365
33
0.00000
11
-25.65828
21
-74.17367
31
0.00000
11
-26.47078
21
-72.76638
31
0.00000
0
LINE
5
67
330
48
100
AcDbEntity
8
0
100
AcDbLine
10
-26.47078
20
-72.76638
11
-12.44101
21
-48.46611
62
3
0
SPLINE
5
68
330
48
100
AcDbEntity
8
0
100
AcDbSpline
70
0
71
3
62
3
74
2
12
0.40625
22
0.70365
32
0.00000
13
-0.81250
23
0.00000
33
0.00000
11
-12.44101
21
-48.46611
31
0.00000
11
-13.25351
21
-47.05882
31
0.00000
0
LINE
5
69
330
48
100
AcDbEntity
8
0
100
AcDbLine
10
-13.25351
20
-47.05882
11
-18.14399
21
-47.05882
62
3
0
SPLINE
5
6A
330
48
100
AcDbEntity
8
0
100
AcDbSpline
70
0
71
3
62
3
74
2
12
-0.81250
22
0.00000
32
0.00000
13
0.40625
23
0.70365
33
0.00000
11
-18.14399
21
-47.05882
31
0.00000
11
-18.95649
21
-45.65153
31
0.00000
0
LINE
5
6B
330
48
100
AcDbEntity
8
0
100
AcDbLine
10
-18.95649
20
-45.65153
11
-6.34989
21
-23.81625
62
3
0
SPLINE
5
6C
330
48
100
AcDbEntity
8
0
100
AcDbSpline
70
0
71
3
62
3
74
2
12
0.40625
22
0.70365
32
0.00000
13
-0.81250
23
0.00000
33
0.00000
11
-6.34989
21
-23.81625
31
0.00000
11
-7.16239
21
-22.40896
31
0.00000
0
LINE
5
6D
330
48
100
AcDbEntity
8
0
100
AcDbLine
10
-7.16239
20
-22.40896
11
-11.31282
21
-22.40896
62
3
0
SPLINE
5
6E
330
48
100
AcDbEntity
8
0
100
AcDbSpline
70
0
71
3
62
3
74
2
12
-0.81250
22
0.00000
32
0.00000
13
0.40625
23
0.70365
33
0.00000
11
-11.31282
21
-22.40896
31
0.00000
11
-12.12532
21
-21.00167
31
0.00000
0
LINE
5
6F
330
48
100
AcDbEntity
8
0
100
AcDbLine
10
-12.12532
20
-21.00167
11
-2.36250
21
-4.09197
62
3
0
SPLINE
5
70
330
48
100
AcDbEntity
8
0
100
AcDbSpline
70
0
71
3
62
3
74
2
12
0.40625
22
0.70365
32
0.00000
13
0.00000
23
-0.81250
33
0.00000
11
-2.36250
21
-4.09197
31
0.00000
11
-1.55000
21
-4.30968
31
0.00000
0
LINE
5
71
330
48
100
AcDbEntity
8
0
100
AcDbLine
10
-1.55000
20
-4.30968
11
-1.55000
21
-65.00000
62
3
0
LINE
5
72
330
48
100
AcDbEntity
8
0
100
AcDbLine
10
-1.55000
20
-65.00000
11
0.00000
21
-65.00000
62
3
0
ENDBLK
5
73
330
48
100
AcDbEntity
8
0
100
AcDbBlockEnd
0
BLOCK
5
76
330
75
100
AcDbEntity
8
0
100
AcDbBlockBegin
2
base
70
0
10
0.00000
20
0.00000
30
0.00000
3
base
1

0
LINE
5
77
330
75
100
AcDbEntity
8
0
100
AcDbLine
10
18.04280
20
0.71917
11
9.34511
21
5.01174
0
SPLINE
5
78
330
75
100
AcDbEntity
8
0
100
AcDbSpline
70
0
71
3
74
2
12
-0.72860
22
0.35958
32
0.00000
13
-0.11684
23
0.80406
33
0.00000
11
9.34511
21
5.01174
31
0.00000
11
7.65424
21
7.33902
31
0.00000
0
LINE
5
79
330
75
100
AcDbEntity
8
0
100
AcDbLine
10
7.65424
20
7.33902
11
6.25950
21
16.93749
0
SPLINE
5
7A
330
75
100
AcDbEntity
8
0
100
AcDbSpline
70
0
71
3
74
2
12
-0.11684
22
0.80406
32
0.00000
13
-0.56713
23
-0.58182
33
0.00000
11
6.25950
21
16.93749
31
0.00000
11
4.89156
21
17.38196
31
0.00000
0
LINE
5
7B
330
75
100
AcDbEntity
8
0
100
AcDbLine
10
4.89156
20
17.38196
11
-1.87865
21
10.43644
0
SPLINE
5
7C
330
75
100
AcDbEntity
8
0
100
AcDbSpline
70
0
71
3
74
2
12
-0.56713
22
-0.58182
32
0.00000
13
-0.80081
23
0.13735
33
0.00000
11
-1.87865
21
10.43644
31
0.00000
11
-4.61453
21
9.54750
31
0.00000
0
LINE
5
7D
330
75
100
AcDbEntity
8
0
100
AcDbLine
10
-4.61453
20
9.54750
11
-14.17422
21
11.18711
0
SPLINE
5
7E
330
75
100
AcDbEntity
8
0
100
AcDbSpline
70
0
71
3
74
2
12
-0.80081
22
0.13735
32
0.00000
13
0.37809
23
-0.71917
33
0.00000
11
-14.17422
21
11.18711
31
0.00000
11
-15.01965
21
10.02347
31
0.00000
0
LINE
5
7F
330
75
100
AcDbEntity
8
0
100
AcDbLine
10
-15.01965
20
10.02347
11
-10.50618
21
1.43834
0
SPLINE
5
80
330
75
100
AcDbEntity
8
0
100
AcDbSpline
70
0
71
3
74
2
12
0.37809
22
-0.71917
32
0.00000
13
-0.37809
23
-0.71917
33
0.00000
11
-10.50618
21
1.43834
31
0.00000
11
-10.50618
21
-1.43834
31
0.00000
0
LINE
5
81
330
75
100
AcDbEntity
8
0
100
AcDbLine
10
-10.50618
20
-1.43834
11
-15.01965
21
-10.02347
0
SPLINE
5
82
330
75
100
AcDbEntity
8
0
100
AcDbSpline
70
0
71
3
74
2
12
-0.37809
22
-0.71917
32
0.00000
13
0.80081
23
0.13735
33
0.00000
11
-15.01965
21
-10.02347
31
0.00000
11
-14.17422
21
-11.18711
31
0.00000
0
LINE
5
83
330
75
100
AcDbEntity
8
0
100
AcDbLine
10
-14.17422
20
-11.18711
11
-4.61453
21
-9.54750
0
SPLINE
5
84
330
75
100
AcDbEntity
8
0
100
AcDbSpline
70
0
71
3
74
2
12
0.80081
22
0.13735
32
0.00000
13
0.56713
23
-0.58182
33
0.00000
11
-4.61453
21
-9.54750
31
0.00000
11
-1.87865
21
-10.43644
31
0.00000
0
LINE
5
85
330
75
100
AcDbEntity
8
0
100
AcDbLine
10
-1.87865
20
-10.43644
11
4.89156
21
-17.38196
0
SPLINE
5
86
330
75
100
AcDbEntity
8
0
100
AcDbSpline
70
0
71
3
74
2
12
0.56713
22
-0.58182
32
0.00000
13
0.11684
23
0.80406
33
0.00000
11
4.89156
21
-17.38196
31
0.00000
11
6.25950
21
-16.93749
31
0.00000
0
LINE
5
87
330
75
100
AcDbEntity
8
0
100
AcDbLine
10
6.25950
20
-16.93749
11
7.65424
21
-7.33902
0
SPLINE
5
88
330
75
100
AcDbEntity
8
0
100
AcDbSpline
70
0
71
3
74
2
12
0.11684
22
0.80406
32
0.00000
13
0.72860
23
0.35958
33
0.00000
11
7.65424
21
-7.33902
31
0.00000
11
9.34511
21
-5.01174
31
0.00000
0
LINE
5
89
330
75
100
AcDbEntity
8
0
100
AcDbLine
10
9.34511
20
-5.01174
11
18.04280
21
-0.71917
0
SPLINE
5
8A
330
75
100
AcDbEntity
8
0
100
AcDbSpline
70
0
71
3
74
2
12
0.72860
22
0.35958
32
0.00000
13
-0.72860
23
0.35958
33
0.00000
11
18.04280
21
-0.71917
31
0.00000
11
18.04280
21
0.71917
31
0.00000
0
POLYLINE
5
8B
330
75
100
AcDbEntity
8
0
100
AcDb2dPolyline
10
0.00000
20
0.00000
70
1
66
1
62
6
0
VERTEX
5
8C
330
75
100
AcDbEntity
8
0
100
AcDbVertex
100
AcDb2dVertex
10
-1.55000
20
6.50000
0
VERTEX
5
8D
330
75
100
AcDbEntity
8
0
100
AcDbVertex
100
AcDb2dVertex
10
-1.55000
20
1.55000
0
VERTEX
5
8E
330
75
100
AcDbEntity
8
0
100
AcDbVertex
100
AcDb2dVertex
10
-6.50000
20
1.55000
0
VERTEX
5
8F
330
75
100
AcDbEntity
8
0
100
AcDbVertex
100
AcDb2dVertex
10
-6.50000
20
-1.55000
0
VERTEX
5
90
330
75
100
AcDbEntity
8
0
100
AcDbVertex
100
AcDb2dVertex
10
-1.55000
20
-1.55000
0
VERTEX
5
91
330
75
100
AcDbEntity
8
0
100
AcDbVertex
100
AcDb2dVertex
10
-1.55000
20
-6.50000
0
VERTEX
5
92
330
75
100
AcDbEntity
8
0
100
AcDbVertex
100
AcDb2dVertex
10
1.55000
20
-6.50000
0
VERTEX
5
93
330
75
100
AcDbEntity
8
0
100
AcDbVertex
100
AcDb2dVertex
10
1.55000
20
-1.55000
0
VERTEX
5
94
330
75
100
AcDbEntity
8
0
100
AcDbVertex
100
AcDb2dVertex
10
6.50000
20
-1.55000
0
VERTEX
5
95
330
75
100
AcDbEntity
8
0
100
AcDbVertex
100
AcDb2dVertex
10
6.50000
20
1.55000
0
VERTEX
5
96
330
75
100
AcDbEntity
8
0
100
AcDbVertex
100
AcDb2dVertex
10
1.55000
20
1.55000
0
VERTEX
5
97
330
75
100
AcDbEntity
8
0
100
AcDbVertex
100
AcDb2dVertex
10
1.55000
20
6.50000
0
VERTEX
5
98
330
75
100
AcDbEntity
8
0
100
AcDbVertex
100
AcDb2dVertex
10
-1.55000
20
6.50000
0
SEQEND
5
99
330
75
100
AcDbEntity
0
ENDBLK
5
9A
330
75
100
AcDbEntity
8
0
100
AcDbBlockEnd
0
BLOCK
5
9D
330
9C
100
AcDbEntity
8
0
100
AcDbBlockBegin
2
star1
70
0
10
0.00000
20
0.00000
30
0.00000
3
star1
1

0
LINE
5
9E
330
9C
100
AcDbEntity
8
0
100
AcDbLine
10
3.30451
20
-10.92357
11
1.55000
21
-7.88468
62
2
0
LINE
5
9F
330
9C
100
AcDbEntity
8
0
100
AcDbLine
10
1.55000
20
-7.88468
11
1.55000
21
0.00000
62
2
0
LINE
5
A0
330
9C
100
AcDbEntity
8
0
100
AcDbLine
10
1.55000
20
0.00000
11
-1.55000
21
0.00000
62
2
0
LINE
5
A1
330
9C
100
AcDbEntity
8
0
100
AcDbLine
10
-1.55000
20
0.00000
11
-1.55000
21
-7.88468
62
2
0
LINE
5
A2
330
9C
100
AcDbEntity
8
0
100
AcDbLine
10
-1.55000
20
-7.88468
11
-3.30451
21
-10.92357
62
2
0
SPLINE
5
A3
330
9C
100
AcDbEntity
8
0
100
AcDbSpline
70
0
71
3
62
2
74
2
12
-0.40625
22
-0.70365
32
0.00000
13
0.00800
23
0.81246
33
0.00000
11
-3.30451
21
-10.92357
31
0.00000
11
-4.10102
21
-10.70594
31
0.00000
0
LINE
5
A4
330
9C
100
AcDbEntity
8
0
100
AcDbLine
10
-4.10102
20
-10.70594
11
-4.04401
21
-4.91355
62
2
0
SPLINE
5
A5
330
9C
100
AcDbEntity
8
0
100
AcDbSpline
70
0
71
3
62
2
74
2
12
0.00800
22
0.81246
32
0.00000
13
-0.79763
23
0.15471
33
0.00000
11
-4.04401
21
-4.91355
31
0.00000
11
-5.62328
21
-2.97921
31
0.00000
0
LINE
5
A6
330
9C
100
AcDbEntity
8
0
100
AcDbLine
10
-5.62328
20
-2.97921
11
-11.30997
21
-1.87620
62
2
0
SPLINE
5
A7
330
9C
100
AcDbEntity
8
0
100
AcDbSpline
70
0
71
3
62
2
74
2
12
-0.79763
22
0.15471
32
0.00000
13
0.73744
23
0.34108
33
0.00000
11
-11.30997
21
-1.87620
31
0.00000
11
-11.43036
21
-0.88461
31
0.00000
0
LINE
5
A8
330
9C
100
AcDbEntity
8
0
100
AcDbLine
10
-11.43036
20
-0.88461
11
-6.17280
21
1.54709
62
2
0
SPLINE
5
A9
330
9C
100
AcDbEntity
8
0
100
AcDbSpline
70
0
71
3
62
2
74
2
12
0.73744
22
0.34108
32
0.00000
13
-0.20217
23
0.78694
33
0.00000
11
-6.17280
21
1.54709
31
0.00000
11
-5.10227
21
3.80314
31
0.00000
0
LINE
5
AA
330
9C
100
AcDbEntity
8
0
100
AcDbLine
10
-5.10227
20
3.80314
11
-6.54365
21
9.41362
62
2
0
SPLINE
5
AB
330
9C
100
AcDbEntity
8
0
100
AcDbSpline
70
0
71
3
62
2
74
2
12
-0.20217
22
0.78694
32
0.00000
13
0.62429
23
-0.52002
33
0.00000
11
-6.54365
21
9.41362
31
0.00000
11
-5.69942
21
9.94747
31
0.00000
0
LINE
5
AC
330
9C
100
AcDbEntity
8
0
100
AcDbLine
10
-5.69942
20
9.94747
11
-1.24858
21
6.24004
62
2
0
SPLINE
5
AD
330
9C
100
AcDbEntity
8
0
100
AcDbSpline
70
0
71
3
62
2
74
2
12
0.62429
22
-0.52002
32
0.00000
13
0.62429
23
0.52002
33
0.00000
11
-1.24858
21
6.24004
31
0.00000
11
1.24858
21
6.24004
31
0.00000
0
LINE
5
AE
330
9C
100
AcDbEntity
8
0
100
AcDbLine
10
1.24858
20
6.24004
11
5.69942
21
9.94747
62
2
0
SPLINE
5
AF
330
9C
100
AcDbEntity
8
0
100
AcDbSpline
70
0
71
3
62
2
74
2
12
0.62429
22
0.52002
32
0.00000
13
-0.20217
23
-0.78694
33
0.00000
11
5.69942
21
9.94747
31
0.00000
11
6.54365
21
9.41362
31
0.00000
0
LINE
5
B0
330
9C
100
AcDbEntity
8
0
100
AcDbLine
10
6.54365
20
9.41362
11
5.10227
21
3.80314
62
2
0
SPLINE
5
B1
330
9C
100
AcDbEntity
8
0
100
AcDbSpline
70
0
71
3
62
2
74
2
12
-0.20217
22
-0.78694
32
0.00000
13
0.73744
23
-0.34108
33
0.00000
11
5.10227
21
3.80314
31
0.00000
11
6.17280
21
1.54709
31
0.00000
0
LINE
5
B2
330
9C
100
AcDbEntity
8
0
100
AcDbLine
10
6.17280
20
1.54709
11
11.43036
21
-0.88461
62
2
0
SPLINE
5
B3
330
9C
100
AcDbEntity
8
0
100
AcDbSpline
70
0
71
3
62
2
74
2
12
0.73744
22
-0.34108
32
0.00000
13
-0.79763
23
-0.15471
33
0.00000
11
11.43036
21
-0.88461
31
0.00000
11
11.30997
21
-1.87620
31
0.00000
0
LINE
5
B4
330
9C
100
AcDbEntity
8
0
100
AcDbLine
10
11.30997
20
-1.87620
11
5.62328
21
-2.97921
62
2
0
SPLINE
5
B5
330
9C
100
AcDbEntity
8
0
100
AcDbSpline
70
0
71
3
62
2
74
2
12
-0.79763
22
-0.15471
32
0.00000
13
0.00800
23
-0.81246
33
0.00000
11
5.62328
21
-2.97921
31
0.00000
11
4.04401
21
-4.91355
31
0.00000
0
LINE
5
B6
330
9C
100
AcDbEntity
8
0
100
AcDbLine
10
4.04401
20
-4.91355
11
4.10102
21
-10.70594
62
2
0
SPLINE
5
B7
330
9C
100
AcDbEntity
8
0
100
AcDbSpline
70
0
71
3
62
2
74
2
12
0.00800
22
-0.81246
32
0.00000
13
-0.40625
23
0.70365
33
0.00000
11
4.10102
21
-10.70594
31
0.00000
11
3.30451
21
-10.92357
31
0.00000
0
ENDBLK
5
B8
330
9C
100
AcDbEntity
8
0
100
AcDbBlockEnd
0
BLOCK
5
BB
330
BA
100
AcDbEntity
8
0
100
AcDbBlockBegin
2
star2
70
0
10
0.00000
20
0.00000
30
0.00000
3
star2
1

0
LINE
5
BC
330
BA
100
AcDbEntity
8
0
100
AcDbLine
10
3.30451
20
-10.92357
11
0.81250
21
-6.60729
62
2
0
SPLINE
5
BD
330
BA
100
AcDbEntity
8
0
100
AcDbSpline
70
0
71
3
62
2
74
2
12
-0.40625
22
0.70365
32
0.00000
13
-0.40625
23
-0.70365
33
0.00000
11
0.81250
21
-6.60729
31
0.00000
11
-0.81250
21
-6.60729
31
0.00000
0
LINE
5
BE
330
BA
100
AcDbEntity
8
0
100
AcDbLine
10
-0.81250
20
-6.60729
11
-3.30451
21
-10.92357
62
2
0
SPLINE
5
BF
330
BA
100
AcDbEntity
8
0
100
AcDbSpline
70
0
71
3
62
2
74
2
12
-0.40625
22
-0.70365
32
0.00000
13
0.00800
23
0.81246
33
0.00000
11
-3.30451
21
-10.92357
31
0.00000
11
-4.10102
21
-10.70594
31
0.00000
0
LINE
5
C0
330
BA
100
AcDbEntity
8
0
100
AcDbLine
10
-4.10102
20
-10.70594
11
-4.04401
21
-4.91355
62
2
0
SPLINE
5
C1
330
BA
100
AcDbEntity
8
0
100
AcDbSpline
70
0
71
3
62
2
74
2
12
0.00800
22
0.81246
32
0.00000
13
-0.79763
23
0.15471
33
0.00000
11
-4.04401
21
-4.91355
31
0.00000
11
-5.62328
21
-2.97921
31
0.00000
0
LINE
5
C2
330
BA
100
AcDbEntity
8
0
100
AcDbLine
10
-5.62328
20
-2.97921
11
-11.30997
21
-1.87620
62
2
0
SPLINE
5
C3
330
BA
100
AcDbEntity
8
0
100
AcDbSpline
70
0
71
3
62
2
74
2
12
-0.79763
22
0.15471
32
0.00000
13
0.73744
23
0.34108
33
0.00000
11
-11.30997
21
-1.87620
31
0.00000
11
-11.43036
21
-0.88461
31
0.00000
0
LINE
5
C4
330
BA
100
AcDbEntity
8
0
100
AcDbLine
10
-11.43036
20
-0.88461
11
-6.17280
21
1.54709
62
2
0
SPLINE
5
C5
330
BA
100
AcDbEntity
8
0
100
AcDbSpline
70
0
71
3
62
2
74
2
12
0.73744
22
0.34108
32
0.00000
13
-0.20217
23
0.78694
33
0.00000
11
-6.17280
21
1.54709
31
0.00000
11
-5.10227
21
3.80314
31
0.00000
0
LINE
5
C6
330
BA
100
AcDbEntity
8
0
100
AcDbLine
10
-5.10227
20
3.80314
11
-6.54365
21
9.41362
62
2
0
SPLINE
5
C7
330
BA
100
AcDbEntity
8
0
100
AcDbSpline
70
0
71
3
62
2
74
2
12
-0.20217
22
0.78694
32
0.00000
13
0.62429
23
-0.52002
33
0.00000
11
-6.54365
21
9.41362
31
0.00000
11
-5.69942
21
9.94747
31
0.00000
0
LINE
5
C8
330
BA
100
AcDbEntity
8
0
100
AcDbLine
10
-5.69942
20
9.94747
11
-1.55000
21
6.49111
62
2
0
LINE
5
C9
330
BA
100
AcDbEntity
8
0
100
AcDbLine
10
-1.55000
20
6.49111
11
-1.55000
21
0.00000
62
2
0
LINE
5
CA
330
BA
100
AcDbEntity
8
0
100
AcDbLine
10
-1.55000
20
0.00000
11
1.55000
21
0.00000
62
2
0
LINE
5
CB
330
BA
100
AcDbEntity
8
0
100
AcDbLine
10
1.55000
20
0.00000
11
1.55000
21
6.49111
62
2
0
LINE
5
CC
330
BA
100
AcDbEntity
8
0
100
AcDbLine
10
1.55000
20
6.49111
11
5.69942
21
9.94747
62
2
0
SPLINE
5
CD
330
BA
100
AcDbEntity
8
0
100
AcDbSpline
70
0
71
3
62
2
74
2
12
0.62429
22
0.52002
32
0.00000
13
-0.20217
23
-0.78694
33
0.00000
11
5.69942
21
9.94747
31
0.00000
11
6.54365
21
9.41362
31
0.00000
0
LINE
5
CE
330
BA
100
AcDbEntity
8
0
100
AcDbLine
10
6.54365
20
9.41362
11
5.10227
21
3.80314
62
2
0
SPLINE
5
CF
330
BA
100
AcDbEntity
8
0
100
AcDbSpline
70
0
71
3
62
2
74
2
12
-0.20217
22
-0.78694
32
0.00000
13
0.73744
23
-0.34108
33
0.00000
11
5.10227
21
3.80314
31
0.00000
11
6.17280
21
1.54709
31
0.00000
0
LINE
5
D0
330
BA
100
AcDbEntity
8
0
100
AcDbLine
10
6.17280
20
1.54709
11
11.43036
21
-0.88461
62
2
0
SPLINE
5
D1
330
BA
100
AcDbEntity
8
0
100
AcDbSpline
70
0
71
3
62
2
74
2
12
0.73744
22
-0.34108
32
0.00000
13
-0.79763
23
-0.15471
33
0.00000
11
11.43036
21
-0.88461
31
0.00000
11
11.30997
21
-1.87620
31
0.00000
0
LINE
5
D2
330
BA
100
AcDbEntity
8
0
100
AcDbLine
10
11.30997
20
-1.87620
11
5.62328
21
-2.97921
62
2
0
SPLINE
5
D3
330
BA
100
AcDbEntity
8
0
100
AcDbSpline
70
0
71
3
62
2
74
2
12
-0.79763
22
-0.15471
32
0.00000
13
0.00800
23
-0.81246
33
0.00000
11
5.62328
21
-2.97921
31
0.00000
11
4.04401
21
-4.91355
31
0.00000
0
LINE
5
D4
330
BA
100
AcDbEntity
8
0
100
AcDbLine
10
4.04401
20
-4.91355
11
4.10102
21
-10.70594
62
2
0
SPLINE
5
D5
330
BA
100
AcDbEntity
8
0
100
AcDbSpline
70
0
71
3
62
2
74
2
12
0.00800
22
-0.81246
32
0.00000
13
-0.40625
23
0.70365
33
0.00000
11
4.10102
21
-10.70594
31
0.00000
11
3.30451
21
-10.92357
31
0.00000
0
ENDBLK
5
D6
330
BA
100
AcDbEntity
8
0
100
AcDbBlockEnd
0
BLOCK
5
D9
330
D8
100
AcDbEntity
8
0
100
AcDbBlockBegin
2
mini star
70
0
10
0.00000
20
0.00000
30
0.00000
3
mini star
1

0
LINE
5
DA
330
D8
100
AcDbEntity
8
0
100
AcDbLine
10
2.93922
20
0.09510
11
1.43661
21
0.55490
62
2
0
SPLINE
5
DB
330
D8
100
AcDbEntity
8
0
100
AcDbSpline
70
0
71
3
62
2
74
2
12
-0.15539
22
0.04755
32
0.00000
13
0.03652
23
0.15834
33
0.00000
11
1.43661
21
0.55490
31
0.00000
11
1.19886
21
0.96669
31
0.00000
0
LINE
5
DC
330
D8
100
AcDbEntity
8
0
100
AcDbLine
10
1.19886
20
0.96669
11
1.55197
21
2.49789
62
2
0
SPLINE
5
DD
330
D8
100
AcDbEntity
8
0
100
AcDbSpline
70
0
71
3
62
2
74
2
12
0.03652
22
0.15834
32
0.00000
13
-0.11887
23
-0.11080
33
0.00000
11
1.55197
21
2.49789
31
0.00000
11
1.38725
21
2.59299
31
0.00000
0
LINE
5
DE
330
D8
100
AcDbEntity
8
0
100
AcDbLine
10
1.38725
20
2.59299
11
0.23775
21
1.52159
62
2
0
SPLINE
5
DF
330
D8
100
AcDbEntity
8
0
100
AcDbSpline
70
0
71
3
62
2
74
2
12
-0.11887
22
-0.11080
32
0.00000
13
-0.11887
23
0.11080
33
0.00000
11
0.23775
21
1.52159
31
0.00000
11
-0.23775
21
1.52159
31
0.00000
0
LINE
5
E0
330
D8
100
AcDbEntity
8
0
100
AcDbLine
10
-0.23775
20
1.52159
11
-1.38725
21
2.59299
62
2
0
SPLINE
5
E1
330
D8
100
AcDbEntity
8
0
100
AcDbSpline
70
0
71
3
62
2
74
2
12
-0.11887
22
0.11080
32
0.00000
13
0.03652
23
-0.15834
33
0.00000
11
-1.38725
21
2.59299
31
0.00000
11
-1.55197
21
2.49789
31
0.00000
0
LINE
5
E2
330
D8
100
AcDbEntity
8
0
100
AcDbLine
10
-1.55197
20
2.49789
11
-1.19886
21
0.96669
62
2
0
SPLINE
5
E3
330
D8
100
AcDbEntity
8
0
100
AcDbSpline
70
0
71
3
62
2
74
2
12
0.03652
22
-0.15834
32
0.00000
13
-0.15539
23
-0.04755
33
0.00000
11
-1.19886
21
0.96669
31
0.00000
11
-1.43661
21
0.55490
31
0.00000
0
LINE
5
E4
330
D8
100
AcDbEntity
8
0
100
AcDbLine
10
-1.43661
20
0.55490
11
-2.93922
21
0.09510
62
2
0
SPLINE
5
E5
330
D8
100
AcDbEntity
8
0
100
AcDbSpline
70
0
71
3
62
2
74
2
12
-0.15539
22
-0.04755
32
0.00000
13
0.15539
23
-0.04755
33
0.00000
11
-2.93922
21
0.09510
31
0.00000
11
-2.93922
21
-0.09510
31
0.00000
0
LINE
5
E6
330
D8
100
AcDbEntity
8
0
100
AcDbLine
10
-2.93922
20
-0.09510
11
-1.43661
21
-0.55490
62
2
0
SPLINE
5
E7
330
D8
100
AcDbEntity
8
0
100
AcDbSpline
70
0
71
3
62
2
74
2
12
0.15539
22
-0.04755
32
0.00000
13
-0.03652
23
-0.15834
33
0.00000
11
-1.43661
21
-0.55490
31
0.00000
11
-1.19886
21
-0.96669
31
0.00000
0
LINE
5
E8
330
D8
100
AcDbEntity
8
0
100
AcDbLine
10
-1.19886
20
-0.96669
11
-1.55197
21
-2.49789
62
2
0
SPLINE
5
E9
330
D8
100
AcDbEntity
8
0
100
AcDbSpline
70
0
71
3
62
2
74
2
12
-0.03652
22
-0.15834
32
0.00000
13
0.11887
23
0.11080
33
0.00000
11
-1.55197
21
-2.49789
31
0.00000
11
-1.38725
21
-2.59299
31
0.00000
0
LINE
5
EA
330
D8
100
AcDbEntity
8
0
100
AcDbLine
10
-1.38725
20
-2.59299
11
-0.23775
21
-1.52159
62
2
0
SPLINE
5
EB
330
D8
100
AcDbEntity
8
0
100
AcDbSpline
70
0
71
3
62
2
74
2
12
0.11887
22
0.11080
32
0.00000
13
0.11887
23
-0.11080
33
0.00000
11
-0.23775
21
-1.52159
31
0.00000
11
0.23775
21
-1.52159
31
0.00000
0
LINE
5
EC
330
D8
100
AcDbEntity
8
0
100
AcDbLine
10
0.23775
20
-1.52159
11
1.38725
21
-2.59299
62
2
0
SPLINE
5
ED
330
D8
100
AcDbEntity
8
0
100
AcDbSpline
70
0
71
3
62
2
74
2
12
0.11887
22
-0.11080
32
0.00000
13
-0.03652
23
0.15834
33
0.00000
11
1.38725
21
-2.59299
31
0.00000
11
1.55197
21
-2.49789
31
0.00000
0
LINE
5
EE
330
D8
100
AcDbEntity
8
0
100
AcDbLine
10
1.55197
20
-2.49789
11
1.19886
21
-0.96669
62
2
0
SPLINE
5
EF
330
D8
100
AcDbEntity
8
0
100
AcDbSpline
70
0
71
3
62
2
74
2
12
-0.03652
22
0.15834
32
0.00000
13
0.15539
23
0.04755
33
0.00000
11
1.19886
21
-0.96669
31
0.00000
11
1.43661
21
-0.55490
31
0.00000
0
LINE
5
F0
330
D8
100
AcDbEntity
8
0
100
AcDbLine
10
1.43661
20
-0.55490
11
2.93922
21
-0.09510
62
2
0
SPLINE
5
F1
330
D8
100
AcDbEntity
8
0
100
AcDbSpline
70
0
71
3
62
2
74
2
12
0.15539
22
0.04755
32
0.00000
13
-0.15539
23
0.04755
33
0.00000
11
2.93922
21
-0.09510
31
0.00000
11
2.93922
21
0.09510
31
0.00000
0
ENDBLK
5
F2
330
D8
100
AcDbEntity
8
0
100
AcDbBlockEnd
0
ENDSEC
0
SECTION
2
ENTITIES
999
0
0
INSERT
5
47
330
16
100
AcDbEntity
8
0
100
AcDbBlockReference
10
35.54899
20
130.00000
2
tree1
70
1
71
1
0
INSERT
5
74
330
16
100
AcDbEntity
8
0
100
AcDbBlockReference
10
106.64698
20
130.00000
2
tree2
70
1
71
1
0
INSERT
5
9B
330
16
100
AcDbEntity
8
0
100
AcDbBlockReference
10
71.09798
20
110.50000
2
base
70
1
71
1
0
INSERT
5
B9
330
16
100
AcDbEntity
8
0
100
AcDbBlockReference
10
71.09798
20
78.00000
2
star1
70
1
71
1
0
INSERT
5
D7
330
16
100
AcDbEntity
8
0
100
AcDbBlockReference
10
71.09798
20
13.00000
2
star2
70
1
71
1
0
INSERT
5
F3
330
16
100
AcDbEntity
8
0
100
AcDbBlockReference
10
64.59798
20
61.75000
2
mini star
70
1
71
1
0
INSERT
5
F4
330
16
100
AcDbEntity
8
0
100
AcDbBlockReference
10
71.09798
20
61.75000
2
mini star
70
1
71
1
0
INSERT
5
F5
330
16
100
AcDbEntity
8
0
100
AcDbBlockReference
10
77.59798
20
61.75000
2
mini star
70
1
71
1
0
INSERT
5
F6
330
16
100
AcDbEntity
8
0
100
AcDbBlockReference
10
71.09798
20
55.25000
2
mini star
70
1
71
1
0
INSERT
5
F7
330
16
100
AcDbEntity
8
0
100
AcDbBlockReference
10
71.09798
20
48.75000
2
mini star
70
1
71
1
0
INSERT
5
F8
330
16
100
AcDbEntity
8
0
100
AcDbBlockReference
10
71.09798
20
42.25000
2
mini star
70
1
71
1
0
ENDSEC
0
SECTION
2
OBJECTS
999
0
0
DICTIONARY
5
A
330
0
100
AcDbDictionary
280
0
281
1
3
ACAD_IMAGE_DICT
350
B
3
ACAD_GROUP
350
C
3
ACAD_IMAGE_VARS
350
D
0
DICTIONARY
5
B
330
A
100
AcDbDictionary
280
0
281
1
0
DICTIONARY
5
C
330
A
100
AcDbDictionary
280
0
281
1
3
mini stars
350
F9
0
RASTERVARIABLES
5
D
330
A
100
AcDbRasterVariables
90
0
70
1
71
1
72
1
0
GROUP
5
F9
102
{ACAD_REACTORS
330
C
102
}
100
AcDbGroup
71
1
300
mini stars
70
0
340
F3
340
F4
340
F5
340
F6
340
F7
340
F8
0
ENDSEC
0
EOF
