0
SECTION
2
HEADER
999
0
999
DXF file generated by DXFWriter.
9
$ACADVER
1
AC1027
9
$MEASUREMENT
70
1
9
$FINGERPRINTGUID
2
{f9905eef-ae42-4248-a1e2-aec3cc2a7c65}
9
$VERSIONGUID
2
{993be37c-bea4-4e15-b430-5f9b90639c1b}
9
$EXTMIN
10
-26.72038
20
-100.00000
9
$EXTMAX
10
82.03614
20
100.00000
9
$HANDSEED
5
FA
0
ENDSEC
0
SECTION
2
TABLES
999
0
0
TABLE
2
VPORT
5
1
330
0
100
AcDbSymbolTable
70
0
0
ENDTAB
0
TABLE
2
LTYPE
5
2
330
0
100
AcDbSymbolTable
70
6
0
LTYPE
5
F
330
2
100
AcDbSymbolTableRecord
100
AcDbLinetypeTableRecord
2
CONTINUOUS
3
CONTINUOUS
70
64
72
65
73
0
74
0
40
0.0000000000000000
3
CONTINUOUS
0
LTYPE
5
10
330
2
100
AcDbSymbolTableRecord
100
AcDbLinetypeTableRecord
2
DASHED
3
DASHED
70
64
72
65
73
2
74
0
40
2.0000000000000000
49
1.0000000000000000
74
0
49
-1.0000000000000000
74
0
3
DASHED
0
LTYPE
5
11
330
2
100
AcDbSymbolTableRecord
100
AcDbLinetypeTableRecord
2
DOTTED
3
DOTTED
70
64
72
65
73
2
74
0
40
0.2000000000000000
49
0.0000000000000000
74
0
49
-0.2000000000000000
74
0
3
DOTTED
0
LTYPE
5
12
330
2
100
AcDbSymbolTableRecord
100
AcDbLinetypeTableRecord
2
DASHDOTTED
3
DASHDOTTED
70
64
72
65
73
4
74
0
40
2.0000000000000000
49
1.0000000000000000
74
0
49
-0.5000000000000000
74
0
49
0.0000000000000000
74
0
49
-0.5000000000000000
74
0
3
DASHDOTTED
0
LTYPE
5
13
330
2
100
AcDbSymbolTableRecord
100
AcDbLinetypeTableRecord
2
BYLAYER
3
ByLayer
70
64
72
65
73
0
74
0
40
0.0000000000000000
3
ByLayer
0
LTYPE
5
14
330
2
100
AcDbSymbolTableRecord
100
AcDbLinetypeTableRecord
2
BYBLOCK
3
ByBlock
70
64
72
65
73
0
74
0
40
0.0000000000000000
3
ByBlock
0
ENDTAB
0
TABLE
2
LAYER
5
3
330
0
100
AcDbSymbolTable
70
1
0
LAYER
5
15
330
3
100
AcDbSymbolTableRecord
100
AcDbLayerTableRecord
2
0
70
64
62
7
6
CONTINUOUS
370
25
390
0
0
ENDTAB
0
TABLE
2
STYLE
5
4
330
0
100
AcDbSymbolTable
70
0
0
ENDTAB
0
TABLE
2
VIEW
5
5
330
0
100
AcDbSymbolTable
70
0
0
ENDTAB
0
TABLE
2
UCS
5
6
330
0
100
AcDbSymbolTable
70
0
0
ENDTAB
0
TABLE
2
APPID
5
7
330
0
100
AcDbSymbolTable
70
1
0
APPID
5
E
330
7
100
AcDbSymbolTableRecord
100
AcDbRegAppTableRecord
2
ACAD
70
0
0
ENDTAB
0
TABLE
2
DIMSTYLE
5
8
330
0
100
AcDbSymbolTable
100
AcDbDimStyleTable
70
0
0
ENDTAB
0
TABLE
2
BLOCK_RECORD
5
9
330
0
100
AcDbSymbolTable
70
8
0
BLOCK_RECORD
5
16
330
9
100
AcDbSymbolTableRecord
100
AcDbBlockTableRecord
2
*MODEL_SPACE
70
0
280
1
281
0
0
BLOCK_RECORD
5
19
330
9
100
AcDbSymbolTableRecord
100
AcDbBlockTableRecord
2
*PAPER_SPACE
70
0
280
1
281
0
0
BLOCK_RECORD
5
1C
330
9
100
AcDbSymbolTableRecord
100
AcDbBlockTableRecord
2
tree1
70
0
280
1
281
0
0
BLOCK_RECORD
5
48
330
9
100
AcDbSymbolTableRecord
100
AcDbBlockTableRecord
2
tree2
70
0
280
1
281
0
0
BLOCK_RECORD
5
75
330
9
100
AcDbSymbolTableRecord
100
AcDbBlockTableRecord
2
base
70
0
280
1
281
0
0
BLOCK_RECORD
5
9C
330
9
100
AcDbSymbolTableRecord
100
AcDbBlockTableRecord
2
star1
70
0
280
1
281
0
0
BLOCK_RECORD
5
BA
330
9
100
AcDbSymbolTableRecord
100
AcDbBlockTableRecord
2
star2
70
0
280
1
281
0
0
BLOCK_RECORD
5
D8
330
9
100
AcDbSymbolTableRecord
100
AcDbBlockTableRecord
2
mini star
70
0
280
1
281
0
0
ENDTAB
0
ENDSEC
0
SECTION
2
BLOCKS
999
0
0
BLOCK
5
17
330
16
100
AcDbEntity
8
0
100
AcDbBlockBegin
2
*MODEL_SPACE
70
0
10
0.00000
20
0.00000
30
0.00000
3
*MODEL_SPACE
1

0
ENDBLK
5
18
330
16
100
AcDbEntity
8
0
100
AcDbBlockEnd
0
BLOCK
5
1A
330
19
100
AcDbEntity
8
0
100
AcDbBlockBegin
2
*PAPER_SPACE
70
0
10
0.00000
20
0.00000
30
0.00000
3
*PAPER_SPACE
1

0
ENDBLK
5
1B
330
19
100
AcDbEntity
8
0
100
AcDbBlockEnd
0
BLOCK
5
1D
330
1C
100
AcDbEntity
8
0
100
AcDbBlockBegin
2
tree1
70
0
10
0.00000
20
0.00000
30
0.00000
3
tree1
1

0
LINE
5
1E
330
1C
100
AcDbEntity
8
0
100
AcDbLine
10
0.62500
20
-1.08253
11
9.32717
21
-16.15513
62
3
0
SPLINE
5
1F
330
1C
100
AcDbEntity
8
0
100
AcDbSpline
70
0
71
3
62
3
74
2
12
0.31250
22
-0.54127
32
0.00000
13
-0.62500
23
0.00000
33
0.00000
11
9.32717
21
-16.15513
31
0.00000
11
8.70217
21
-17.23766
31
0.00000
0
LINE
5
20
330
1C
100
AcDbEntity
8
0
100
AcDbLine
10
8.70217
20
-17.23766
11
5.50953
21
-17.23766
62
3
0
SPLINE
5
21
330
1C
100
AcDbEntity
8
0
100
AcDbSpline
70
0
71
3
62
3
74
2
12
-0.62500
22
0.00000
32
0.00000
13
0.31250
23
-0.54127
33
0.00000
11
5.50953
21
-17.23766
31
0.00000
11
4.88453
21
-18.32020
31
0.00000
0
LINE
5
22
330
1C
100
AcDbEntity
8
0
100
AcDbLine
10
4.88453
20
-18.32020
11
14.58192
21
-35.11656
62
3
0
SPLINE
5
23
330
1C
100
AcDbEntity
8
0
100
AcDbSpline
70
0
71
3
62
3
74
2
12
0.31250
22
-0.54127
32
0.00000
13
-0.62500
23
0.00000
33
0.00000
11
14.58192
21
-35.11656
31
0.00000
11
13.95692
21
-36.19910
31
0.00000
0
LINE
5
24
330
1C
100
AcDbEntity
8
0
100
AcDbLine
10
13.95692
20
-36.19910
11
10.19501
21
-36.19910
62
3
0
SPLINE
5
25
330
1C
100
AcDbEntity
8
0
100
AcDbSpline
70
0
71
3
62
3
74
2
12
-0.62500
22
0.00000
32
0.00000
13
0.31250
23
-0.54127
33
0.00000
11
10.19501
21
-36.19910
31
0.00000
11
9.57001
21
-37.28163
31
0.00000
0
LINE
5
26
330
1C
100
AcDbEntity
8
0
100
AcDbLine
10
9.57001
20
-37.28163
11
20.36214
21
-55.97414
62
3
0
SPLINE
5
27
330
1C
100
AcDbEntity
8
0
100
AcDbSpline
70
0
71
3
62
3
74
2
12
0.31250
22
-0.54127
32
0.00000
13
-0.62500
23
0.00000
33
0.00000
11
20.36214
21
-55.97414
31
0.00000
11
19.73714
21
-57.05667
31
0.00000
0
LINE
5
28
330
1C
100
AcDbEntity
8
0
100
AcDbLine
10
19.73714
20
-57.05667
11
15.34904
21
-57.05667
62
3
0
SPLINE
5
29
330
1C
100
AcDbEntity
8
0
100
AcDbSpline
70
0
71
3
62
3
74
2
12
-0.62500
22
0.00000
32
0.00000
13
0.31250
23
-0.54127
33
0.00000
11
15.34904
21
-57.05667
31
0.00000
11
14.72404
21
-58.13920
31
0.00000
0
LINE
5
2A
330
1C
100
AcDbEntity
8
0
100
AcDbLine
10
14.72404
20
-58.13920
11
26.72038
21
-78.91747
62
3
0
SPLINE
5
2B
330
1C
100
AcDbEntity
8
0
100
AcDbSpline
70
0
71
3
62
3
74
2
12
0.31250
22
-0.54127
32
0.00000
13
-0.62500
23
0.00000
33
0.00000
11
26.72038
21
-78.91747
31
0.00000
11
26.09538
21
-80.00000
31
0.00000
0
LINE
5
2C
330
1C
100
AcDbEntity
8
0
100
AcDbLine
10
26.09538
20
-80.00000
11
6.25000
21
-80.00000
62
3
0
SPLINE
5
2D
330
1C
100
AcDbEntity
8
0
100
AcDbSpline
70
0
71
3
62
3
74
2
12
-0.62500
22
0.00000
32
0.00000
13
0.00000
23
-0.62500
33
0.00000
11
6.25000
21
-80.00000
31
0.00000
11
5.00000
21
-81.25000
31
0.00000
0
LINE
5
2E
330
1C
100
AcDbEntity
8
0
100
AcDbLine
10
5.00000
20
-81.25000
11
5.00000
21
-100.00000
62
3
0
LINE
5
2F
330
1C
100
AcDbEntity
8
0
100
AcDbLine
10
5.00000
20
-100.00000
11
1.55000
21
-100.00000
62
3
0
LINE
5
30
330
1C
100
AcDbEntity
8
0
100
AcDbLine
10
1.55000
20
-100.00000
11
1.55000
21
-50.00000
62
3
0
LINE
5
31
330
1C
100
AcDbEntity
8
0
100
AcDbLine
10
1.55000
20
-50.00000
11
-1.55000
21
-50.00000
62
3
0
LINE
5
32
330
1C
100
AcDbEntity
8
0
100
AcDbLine
10
-1.55000
20
-50.00000
11
-1.55000
21
-100.00000
62
3
0
LINE
5
33
330
1C
100
AcDbEntity
8
0
100
AcDbLine
10
-1.55000
20
-100.00000
11
-5.00000
21
-100.00000
62
3
0
LINE
5
34
330
1C
100
AcDbEntity
8
0
100
AcDbLine
10
-5.00000
20
-100.00000
11
-5.00000
21
-81.25000
62
3
0
SPLINE
5
35
330
1C
100
AcDbEntity
8
0
100
AcDbSpline
70
0
71
3
62
3
74
2
12
0.00000
22
0.62500
32
0.00000
13
-0.62500
23
0.00000
33
0.00000
11
-5.00000
21
-81.25000
31
0.00000
11
-6.25000
21
-80.00000
31
0.00000
0
LINE
5
36
330
1C
100
AcDbEntity
8
0
100
AcDbLine
10
-6.25000
20
-80.00000
11
-26.09538
21
-80.00000
62
3
0
SPLINE
5
37
330
1C
100
AcDbEntity
8
0
100
AcDbSpline
70
0
71
3
62
3
74
2
12
-0.62500
22
0.00000
32
0.00000
13
0.31250
23
0.54127
33
0.00000
11
-26.09538
21
-80.00000
31
0.00000
11
-26.72038
21
-78.91747
31
0.00000
0
LINE
5
38
330
1C
100
AcDbEntity
8
0
100
AcDbLine
10
-26.72038
20
-78.91747
11
-14.72404
21
-58.13920
62
3
0
SPLINE
5
39
330
1C
100
AcDbEntity
8
0
100
AcDbSpline
70
0
71
3
62
3
74
2
12
0.31250
22
0.54127
32
0.00000
13
-0.62500
23
0.00000
33
0.00000
11
-14.72404
21
-58.13920
31
0.00000
11
-15.34904
21
-57.05667
31
0.00000
0
LINE
5
3A
330
1C
100
AcDbEntity
8
0
100
AcDbLine
10
-15.34904
20
-57.05667
11
-19.73714
21
-57.05667
62
3
0
SPLINE
5
3B
330
1C
100
AcDbEntity
8
0
100
AcDbSpline
70
0
71
3
62
3
74
2
12
-0.62500
22
0.00000
32
0.00000
13
0.31250
23
0.54127
33
0.00000
11
-19.73714
21
-57.05667
31
0.00000
11
-20.36214
21
-55.97414
31
0.00000
0
LINE
5
3C
330
1C
100
AcDbEntity
8
0
100
AcDbLine
10
-20.36214
20
-55.97414
11
-9.57001
21
-37.28163
62
3
0
SPLINE
5
3D
330
1C
100
AcDbEntity
8
0
100
AcDbSpline
70
0
71
3
62
3
74
2
12
0.31250
22
0.54127
32
0.00000
13
-0.62500
23
0.00000
33
0.00000
11
-9.57001
21
-37.28163
31
0.00000
11
-10.19501
21
-36.19910
31
0.00000
0
LINE
5
3E
330
1C
100
AcDbEntity
8
0
100
AcDbLine
10
-10.19501
20
-36.19910
11
-13.95692
21
-36.19910
62
3
0
SPLINE
5
3F
330
1C
100
AcDbEntity
8
0
100
AcDbSpline
70
0
71
3
62
3
74
2
12
-0.62500
22
0.00000
32
0.00000
13
0.31250
23
0.54127
33
0.00000
11
-13.95692
21
-36.19910
31
0.00000
11
-14.58192
21
-35.11656
31
0.00000
0
LINE
5
40
330
1C
100
AcDbEntity
8
0
100
AcDbLine
10
-14.58192
20
-35.11656
11
-4.88453
21
-18.32020
62
3
0
SPLINE
5
41
330
1C
100
AcDbEntity
8
0
100
AcDbSpline
70
0
71
3
62
3
74
2
12
0.31250
22
0.54127
32
0.00000
13
-0.62500
23
0.00000
33
0.00000
11
-4.88453
21
-18.32020
31
0.00000
11
-5.50953
21
-17.23766
31
0.00000
0
LINE
5
42
330
1C
100
AcDbEntity
8
0
100
AcDbLine
10
-5.50953
20
-17.23766
11
-8.70217
21
-17.23766
62
3
0
SPLINE
5
43
330
1C
100
AcDbEntity
8
0
100
AcDbSpline
70
0
71
3
62
3
74
2
12
-0.62500
22
0.00000
32
0.00000
13
0.31250
23
0.54127
33
0.00000
11
-8.70217
21
-17.23766
31
0.00000
11
-9.32717
21
-16.15513
31
0.00000
0
LINE
5
44
330
1C
100
AcDbEntity
8
0
100
AcDbLine
10
-9.32717
20
-16.15513
11
-0.62500
21
-1.08253
62
3
0
SPLINE
5
45
330
1C
100
AcDbEntity
8
0
100
AcDbSpline
70
0
71
3
62
3
74
2
12
0.31250
22
0.54127
32
0.00000
13
0.31250
23
-0.54127
33
0.00000
11
-0.62500
21
-1.08253
31
0.00000
11
0.62500
21
-1.08253
31
0.00000
0
ENDBLK
5
46
330
1C
100
AcDbEntity
8
0
100
AcDbBlockEnd
0
BLOCK
5
49
330
48
100
AcDbEntity
8
0
100
AcDbBlockBegin
2
tree2
70
0
10
0.00000
20
0.00000
30
0.00000
3
tree2
1

0
LINE
5
4A
330
48
100
AcDbEntity
8
0
100
AcDbLine
10
0.00000
20
-50.00000
11
1.55000
21
-50.00000
62
3
0
LINE
5
4B
330
48
100
AcDbEntity
8
0
100
AcDbLine
10
1.55000
20
-50.00000
11
1.55000
21
-3.93468
62
3
0
SPLINE
5
4C
330
48
100
AcDbEntity
8
0
100
AcDbSpline
70
0
71
3
62
3
74
2
12
0.00000
22
0.62500
32
0.00000
13
0.31250
23
-0.54127
33
0.00000
11
1.55000
21
-3.93468
31
0.00000
11
2.17500
21
-3.76721
31
0.00000
0
LINE
5
4D
330
48
100
AcDbEntity
8
0
100
AcDbLine
10
2.17500
20
-3.76721
11
9.32717
21
-16.15513
62
3
0
SPLINE
5
4E
330
48
100
AcDbEntity
8
0
100
AcDbSpline
70
0
71
3
62
3
74
2
12
0.31250
22
-0.54127
32
0.00000
13
-0.62500
23
0.00000
33
0.00000
11
9.32717
21
-16.15513
31
0.00000
11
8.70217
21
-17.23766
31
0.00000
0
LINE
5
4F
330
48
100
AcDbEntity
8
0
100
AcDbLine
10
8.70217
20
-17.23766
11
5.50953
21
-17.23766
62
3
0
SPLINE
5
50
330
48
100
AcDbEntity
8
0
100
AcDbSpline
70
0
71
3
62
3
74
2
12
-0.62500
22
0.00000
32
0.00000
13
0.31250
23
-0.54127
33
0.00000
11
5.50953
21
-17.23766
31
0.00000
11
4.88453
21
-18.32020
31
0.00000
0
LINE
5
51
330
48
100
AcDbEntity
8
0
100
AcDbLine
10
4.88453
20
-18.32020
11
14.58192
21
-35.11656
62
3
0
SPLINE
5
52
330
48
100
AcDbEntity
8
0
100
AcDbSpline
70
0
71
3
62
3
74
2
12
0.31250
22
-0.54127
32
0.00000
13
-0.62500
23
0.00000
33
0.00000
11
14.58192
21
-35.11656
31
0.00000
11
13.95692
21
-36.19910
31
0.00000
0
LINE
5
53
330
48
100
AcDbEntity
8
0
100
AcDbLine
10
13.95692
20
-36.19910
11
10.19501
21
-36.19910
62
3
0
SPLINE
5
54
330
48
100
AcDbEntity
8
0
100
AcDbSpline
70
0
71
3
62
3
74
2
12
-0.62500
22
0.00000
32
0.00000
13
0.31250
23
-0.54127
33
0.00000
11
10.19501
21
-36.19910
31
0.00000
11
9.57001
21
-37.28163
31
0.00000
0
LINE
5
55
330
48
100
AcDbEntity
8
0
100
AcDbLine
10
9.57001
20
-37.28163
11
20.36214
21
-55.97414
62
3
0
SPLINE
5
56
330
48
100
AcDbEntity
8
0
100
AcDbSpline
70
0
71
3
62
3
74
2
12
0.31250
22
-0.54127
32
0.00000
13
-0.62500
23
0.00000
33
0.00000
11
20.36214
21
-55.97414
31
0.00000
11
19.73714
21
-57.05667
31
0.00000
0
LINE
5
57
330
48
100
AcDbEntity
8
0
100
AcDbLine
10
19.73714
20
-57.05667
11
15.34904
21
-57.05667
62
3
0
SPLINE
5
58
330
48
100
AcDbEntity
8
0
100
AcDbSpline
70
0
71
3
62
3
74
2
12
-0.62500
22
0.00000
32
0.00000
13
0.31250
23
-0.54127
33
0.00000
11
15.34904
21
-57.05667
31
0.00000
11
14.72404
21
-58.13920
31
0.00000
0
LINE
5
59
330
48
100
AcDbEntity
8
0
100
AcDbLine
10
14.72404
20
-58.13920
11
26.72038
21
-78.91747
62
3
0
SPLINE
5
5A
330
48
100
AcDbEntity
8
0
100
AcDbSpline
70
0
71
3
62
3
74
2
12
0.31250
22
-0.54127
32
0.00000
13
-0.62500
23
0.00000
33
0.00000
11
26.72038
21
-78.91747
31
0.00000
11
26.09538
21
-80.00000
31
0.00000
0
LINE
5
5B
330
48
100
AcDbEntity
8
0
100
AcDbLine
10
26.09538
20
-80.00000
11
6.25000
21
-80.00000
62
3
0
SPLINE
5
5C
330
48
100
AcDbEntity
8
0
100
AcDbSpline
70
0
71
3
62
3
74
2
12
-0.62500
22
0.00000
32
0.00000
13
0.00000
23
-0.62500
33
0.00000
11
6.25000
21
-80.00000
31
0.00000
11
5.00000
21
-81.25000
31
0.00000
0
LINE
5
5D
330
48
100
AcDbEntity
8
0
100
AcDbLine
10
5.00000
20
-81.25000
11
5.00000
21
-100.00000
62
3
0
LINE
5
5E
330
48
100
AcDbEntity
8
0
100
AcDbLine
10
5.00000
20
-100.00000
11
-5.00000
21
-100.00000
62
3
0
LINE
5
5F
330
48
100
AcDbEntity
8
0
100
AcDbLine
10
-5.00000
20
-100.00000
11
-5.00000
21
-81.25000
62
3
0
SPLINE
5
60
330
48
100
AcDbEntity
8
0
100
AcDbSpline
70
0
71
3
62
3
74
2
12
0.00000
22
0.62500
32
0.00000
13
-0.62500
23
0.00000
33
0.00000
11
-5.00000
21
-81.25000
31
0.00000
11
-6.25000
21
-80.00000
31
0.00000
0
LINE
5
61
330
48
100
AcDbEntity
8
0
100
AcDbLine
10
-6.25000
20
-80.00000
11
-26.09538
21
-80.00000
62
3
0
SPLINE
5
62
330
48
100
AcDbEntity
8
0
100
AcDbSpline
70
0
71
3
62
3
74
2
12
-0.62500
22
0.00000
32
0.00000
13
0.31250
23
0.54127
33
0.00000
11
-26.09538
21
-80.00000
31
0.00000
11
-26.72038
21
-78.91747
31
0.00000
0
LINE
5
63
330
48
100
AcDbEntity
8
0
100
AcDbLine
10
-26.72038
20
-78.91747
11
-14.72404
21
-58.13920
62
3
0
SPLINE
5
64
330
48
100
AcDbEntity
8
0
100
AcDbSpline
70
0
71
3
62
3
74
2
12
0.31250
22
0.54127
32
0.00000
13
-0.62500
23
0.00000
33
0.00000
11
-14.72404
21
-58.13920
31
0.00000
11
-15.34904
21
-57.05667
31
0.00000
0
LINE
5
65
330
48
100
AcDbEntity
8
0
100
AcDbLine
10
-15.34904
20
-57.05667
11
-19.73714
21
-57.05667
62
3
0
SPLINE
5
66
330
48
100
AcDbEntity
8
0
100
AcDbSpline
70
0
71
3
62
3
74
2
12
-0.62500
22
0.00000
32
0.00000
13
0.31250
23
0.54127
33
0.00000
11
-19.73714
21
-57.05667
31
0.00000
11
-20.36214
21
-55.97414
31
0.00000
0
LINE
5
67
330
48
100
AcDbEntity
8
0
100
AcDbLine
10
-20.36214
20
-55.97414
11
-9.57001
21
-37.28163
62
3
0
SPLINE
5
68
330
48
100
AcDbEntity
8
0
100
AcDbSpline
70
0
71
3
62
3
74
2
12
0.31250
22
0.54127
32
0.00000
13
-0.62500
23
0.00000
33
0.00000
11
-9.57001
21
-37.28163
31
0.00000
11
-10.19501
21
-36.19910
31
0.00000
0
LINE
5
69
330
48
100
AcDbEntity
8
0
100
AcDbLine
10
-10.19501
20
-36.19910
11
-13.95692
21
-36.19910
62
3
0
SPLINE
5
6A
330
48
100
AcDbEntity
8
0
100
AcDbSpline
70
0
71
3
62
3
74
2
12
-0.62500
22
0.00000
32
0.00000
13
0.31250
23
0.54127
33
0.00000
11
-13.95692
21
-36.19910
31
0.00000
11
-14.58192
21
-35.11656
31
0.00000
0
LINE
5
6B
330
48
100
AcDbEntity
8
0
100
AcDbLine
10
-14.58192
20
-35.11656
11
-4.88453
21
-18.32020
62
3
0
SPLINE
5
6C
330
48
100
AcDbEntity
8
0
100
AcDbSpline
70
0
71
3
62
3
74
2
12
0.31250
22
0.54127
32
0.00000
13
-0.62500
23
0.00000
33
0.00000
11
-4.88453
21
-18.32020
31
0.00000
11
-5.50953
21
-17.23766
31
0.00000
0
LINE
5
6D
330
48
100
AcDbEntity
8
0
100
AcDbLine
10
-5.50953
20
-17.23766
11
-8.70217
21
-17.23766
62
3
0
SPLINE
5
6E
330
48
100
AcDbEntity
8
0
100
AcDbSpline
70
0
71
3
62
3
74
2
12
-0.62500
22
0.00000
32
0.00000
13
0.31250
23
0.54127
33
0.00000
11
-8.70217
21
-17.23766
31
0.00000
11
-9.32717
21
-16.15513
31
0.00000
0
LINE
5
6F
330
48
100
AcDbEntity
8
0
100
AcDbLine
10
-9.32717
20
-16.15513
11
-2.17500
21
-3.76721
62
3
0
SPLINE
5
70
330
48
100
AcDbEntity
8
0
100
AcDbSpline
70
0
71
3
62
3
74
2
12
0.31250
22
0.54127
32
0.00000
13
0.00000
23
-0.62500
33
0.00000
11
-2.17500
21
-3.76721
31
0.00000
11
-1.55000
21
-3.93468
31
0.00000
0
LINE
5
71
330
48
100
AcDbEntity
8
0
100
AcDbLine
10
-1.55000
20
-3.93468
11
-1.55000
21
-50.00000
62
3
0
LINE
5
72
330
48
100
AcDbEntity
8
0
100
AcDbLine
10
-1.55000
20
-50.00000
11
0.00000
21
-50.00000
62
3
0
ENDBLK
5
73
330
48
100
AcDbEntity
8
0
100
AcDbBlockEnd
0
BLOCK
5
76
330
75
100
AcDbEntity
8
0
100
AcDbBlockBegin
2
base
70
0
10
0.00000
20
0.00000
30
0.00000
3
base
1

0
LINE
5
77
330
75
100
AcDbEntity
8
0
100
AcDbLine
10
13.87908
20
0.55321
11
7.18855
21
3.85518
0
SPLINE
5
78
330
75
100
AcDbEntity
8
0
100
AcDbSpline
70
0
71
3
74
2
12
-0.56046
22
0.27660
32
0.00000
13
-0.08987
23
0.61850
33
0.00000
11
7.18855
21
3.85518
31
0.00000
11
5.88788
21
5.64540
31
0.00000
0
LINE
5
79
330
75
100
AcDbEntity
8
0
100
AcDbLine
10
5.88788
20
5.64540
11
4.81500
21
13.02884
0
SPLINE
5
7A
330
75
100
AcDbEntity
8
0
100
AcDbSpline
70
0
71
3
74
2
12
-0.08987
22
0.61850
32
0.00000
13
-0.43626
23
-0.44755
33
0.00000
11
4.81500
21
13.02884
31
0.00000
11
3.76274
21
13.37074
31
0.00000
0
LINE
5
7B
330
75
100
AcDbEntity
8
0
100
AcDbLine
10
3.76274
20
13.37074
11
-1.44511
21
8.02803
0
SPLINE
5
7C
330
75
100
AcDbEntity
8
0
100
AcDbSpline
70
0
71
3
74
2
12
-0.43626
22
-0.44755
32
0.00000
13
-0.61601
23
0.10565
33
0.00000
11
-1.44511
21
8.02803
31
0.00000
11
-3.54964
21
7.34423
31
0.00000
0
LINE
5
7D
330
75
100
AcDbEntity
8
0
100
AcDbLine
10
-3.54964
20
7.34423
11
-10.90324
21
8.60547
0
SPLINE
5
7E
330
75
100
AcDbEntity
8
0
100
AcDbSpline
70
0
71
3
74
2
12
-0.61601
22
0.10565
32
0.00000
13
0.29084
23
-0.55321
33
0.00000
11
-10.90324
21
8.60547
31
0.00000
11
-11.55358
21
7.71036
31
0.00000
0
LINE
5
7F
330
75
100
AcDbEntity
8
0
100
AcDbLine
10
-11.55358
20
7.71036
11
-8.08168
21
1.10641
0
SPLINE
5
80
330
75
100
AcDbEntity
8
0
100
AcDbSpline
70
0
71
3
74
2
12
0.29084
22
-0.55321
32
0.00000
13
-0.29084
23
-0.55321
33
0.00000
11
-8.08168
21
1.10641
31
0.00000
11
-8.08168
21
-1.10641
31
0.00000
0
LINE
5
81
330
75
100
AcDbEntity
8
0
100
AcDbLine
10
-8.08168
20
-1.10641
11
-11.55358
21
-7.71036
0
SPLINE
5
82
330
75
100
AcDbEntity
8
0
100
AcDbSpline
70
0
71
3
74
2
12
-0.29084
22
-0.55321
32
0.00000
13
0.61601
23
0.10565
33
0.00000
11
-11.55358
21
-7.71036
31
0.00000
11
-10.90324
21
-8.60547
31
0.00000
0
LINE
5
83
330
75
100
AcDbEntity
8
0
100
AcDbLine
10
-10.90324
20
-8.60547
11
-3.54964
21
-7.34423
0
SPLINE
5
84
330
75
100
AcDbEntity
8
0
100
AcDbSpline
70
0
71
3
74
2
12
0.61601
22
0.10565
32
0.00000
13
0.43626
23
-0.44755
33
0.00000
11
-3.54964
21
-7.34423
31
0.00000
11
-1.44511
21
-8.02803
31
0.00000
0
LINE
5
85
330
75
100
AcDbEntity
8
0
100
AcDbLine
10
-1.44511
20
-8.02803
11
3.76274
21
-13.37074
0
SPLINE
5
86
330
75
100
AcDbEntity
8
0
100
AcDbSpline
70
0
71
3
74
2
12
0.43626
22
-0.44755
32
0.00000
13
0.08987
23
0.61850
33
0.00000
11
3.76274
21
-13.37074
31
0.00000
11
4.81500
21
-13.02884
31
0.00000
0
LINE
5
87
330
75
100
AcDbEntity
8
0
100
AcDbLine
10
4.81500
20
-13.02884
11
5.88788
21
-5.64540
0
SPLINE
5
88
330
75
100
AcDbEntity
8
0
100
AcDbSpline
70
0
71
3
74
2
12
0.08987
22
0.61850
32
0.00000
13
0.56046
23
0.27660
33
0.00000
11
5.88788
21
-5.64540
31
0.00000
11
7.18855
21
-3.85518
31
0.00000
0
LINE
5
89
330
75
100
AcDbEntity
8
0
100
AcDbLine
10
7.18855
20
-3.85518
11
13.87908
21
-0.55321
0
SPLINE
5
8A
330
75
100
AcDbEntity
8
0
100
AcDbSpline
70
0
71
3
74
2
12
0.56046
22
0.27660
32
0.00000
13
-0.56046
23
0.27660
33
0.00000
11
13.87908
21
-0.55321
31
0.00000
11
13.87908
21
0.55321
31
0.00000
0
POLYLINE
5
8B
330
75
100
AcDbEntity
8
0
100
AcDb2dPolyline
10
0.00000
20
0.00000
70
1
66
1
62
6
0
VERTEX
5
8C
330
75
100
AcDbEntity
8
0
100
AcDbVertex
100
AcDb2dVertex
10
-1.55000
20
5.00000
0
VERTEX
5
8D
330
75
100
AcDbEntity
8
0
100
AcDbVertex
100
AcDb2dVertex
10
-1.55000
20
1.55000
0
VERTEX
5
8E
330
75
100
AcDbEntity
8
0
100
AcDbVertex
100
AcDb2dVertex
10
-5.00000
20
1.55000
0
VERTEX
5
8F
330
75
100
AcDbEntity
8
0
100
AcDbVertex
100
AcDb2dVertex
10
-5.00000
20
-1.55000
0
VERTEX
5
90
330
75
100
AcDbEntity
8
0
100
AcDbVertex
100
AcDb2dVertex
10
-1.55000
20
-1.55000
0
VERTEX
5
91
330
75
100
AcDbEntity
8
0
100
AcDbVertex
100
AcDb2dVertex
10
-1.55000
20
-5.00000
0
VERTEX
5
92
330
75
100
AcDbEntity
8
0
100
AcDbVertex
100
AcDb2dVertex
10
1.55000
20
-5.00000
0
VERTEX
5
93
330
75
100
AcDbEntity
8
0
100
AcDbVertex
100
AcDb2dVertex
10
1.55000
20
-1.55000
0
VERTEX
5
94
330
75
100
AcDbEntity
8
0
100
AcDbVertex
100
AcDb2dVertex
10
5.00000
20
-1.55000
0
VERTEX
5
95
330
75
100
AcDbEntity
8
0
100
AcDbVertex
100
AcDb2dVertex
10
5.00000
20
1.55000
0
VERTEX
5
96
330
75
100
AcDbEntity
8
0
100
AcDbVertex
100
AcDb2dVertex
10
1.55000
20
1.55000
0
VERTEX
5
97
330
75
100
AcDbEntity
8
0
100
AcDbVertex
100
AcDb2dVertex
10
1.55000
20
5.00000
0
VERTEX
5
98
330
75
100
AcDbEntity
8
0
100
AcDbVertex
100
AcDb2dVertex
10
-1.55000
20
5.00000
0
SEQEND
5
99
330
75
100
AcDbEntity
0
ENDBLK
5
9A
330
75
100
AcDbEntity
8
0
100
AcDbBlockEnd
0
BLOCK
5
9D
330
9C
100
AcDbEntity
8
0
100
AcDbBlockBegin
2
star1
70
0
10
0.00000
20
0.00000
30
0.00000
3
star1
1

0
LINE
5
9E
330
9C
100
AcDbEntity
8
0
100
AcDbLine
10
2.54193
20
-8.40275
11
1.55000
21
-6.68468
62
2
0
LINE
5
9F
330
9C
100
AcDbEntity
8
0
100
AcDbLine
10
1.55000
20
-6.68468
11
1.55000
21
0.00000
62
2
0
LINE
5
A0
330
9C
100
AcDbEntity
8
0
100
AcDbLine
10
1.55000
20
0.00000
11
-1.55000
21
0.00000
62
2
0
LINE
5
A1
330
9C
100
AcDbEntity
8
0
100
AcDbLine
10
-1.55000
20
0.00000
11
-1.55000
21
-6.68468
62
2
0
LINE
5
A2
330
9C
100
AcDbEntity
8
0
100
AcDbLine
10
-1.55000
20
-6.68468
11
-2.54193
21
-8.40275
62
2
0
SPLINE
5
A3
330
9C
100
AcDbEntity
8
0
100
AcDbSpline
70
0
71
3
62
2
74
2
12
-0.31250
22
-0.54127
32
0.00000
13
0.00615
23
0.62497
33
0.00000
11
-2.54193
21
-8.40275
31
0.00000
11
-3.15463
21
-8.23534
31
0.00000
0
LINE
5
A4
330
9C
100
AcDbEntity
8
0
100
AcDbLine
10
-3.15463
20
-8.23534
11
-3.11077
21
-3.77966
62
2
0
SPLINE
5
A5
330
9C
100
AcDbEntity
8
0
100
AcDbSpline
70
0
71
3
62
2
74
2
12
0.00615
22
0.62497
32
0.00000
13
-0.61356
23
0.11901
33
0.00000
11
-3.11077
21
-3.77966
31
0.00000
11
-4.32560
21
-2.29170
31
0.00000
0
LINE
5
A6
330
9C
100
AcDbEntity
8
0
100
AcDbLine
10
-4.32560
20
-2.29170
11
-8.69998
21
-1.44323
62
2
0
SPLINE
5
A7
330
9C
100
AcDbEntity
8
0
100
AcDbSpline
70
0
71
3
62
2
74
2
12
-0.61356
22
0.11901
32
0.00000
13
0.56726
23
0.26237
33
0.00000
11
-8.69998
21
-1.44323
31
0.00000
11
-8.79258
21
-0.68047
31
0.00000
0
LINE
5
A8
330
9C
100
AcDbEntity
8
0
100
AcDbLine
10
-8.79258
20
-0.68047
11
-4.74831
21
1.19007
62
2
0
SPLINE
5
A9
330
9C
100
AcDbEntity
8
0
100
AcDbSpline
70
0
71
3
62
2
74
2
12
0.56726
22
0.26237
32
0.00000
13
-0.15552
23
0.60534
33
0.00000
11
-4.74831
21
1.19007
31
0.00000
11
-3.92482
21
2.92549
31
0.00000
0
LINE
5
AA
330
9C
100
AcDbEntity
8
0
100
AcDbLine
10
-3.92482
20
2.92549
11
-5.03358
21
7.24124
62
2
0
SPLINE
5
AB
330
9C
100
AcDbEntity
8
0
100
AcDbSpline
70
0
71
3
62
2
74
2
12
-0.15552
22
0.60534
32
0.00000
13
0.48022
23
-0.40001
33
0.00000
11
-5.03358
21
7.24124
31
0.00000
11
-4.38417
21
7.65190
31
0.00000
0
LINE
5
AC
330
9C
100
AcDbEntity
8
0
100
AcDbLine
10
-4.38417
20
7.65190
11
-0.96045
21
4.80003
62
2
0
SPLINE
5
AD
330
9C
100
AcDbEntity
8
0
100
AcDbSpline
70
0
71
3
62
2
74
2
12
0.48022
22
-0.40001
32
0.00000
13
0.48022
23
0.40001
33
0.00000
11
-0.96045
21
4.80003
31
0.00000
11
0.96045
21
4.80003
31
0.00000
0
LINE
5
AE
330
9C
100
AcDbEntity
8
0
100
AcDbLine
10
0.96045
20
4.80003
11
4.38417
21
7.65190
62
2
0
SPLINE
5
AF
330
9C
100
AcDbEntity
8
0
100
AcDbSpline
70
0
71
3
62
2
74
2
12
0.48022
22
0.40001
32
0.00000
13
-0.15552
23
-0.60534
33
0.00000
11
4.38417
21
7.65190
31
0.00000
11
5.03358
21
7.24124
31
0.00000
0
LINE
5
B0
330
9C
100
AcDbEntity
8
0
100
AcDbLine
10
5.03358
20
7.24124
11
3.92482
21
2.92549
62
2
0
SPLINE
5
B1
330
9C
100
AcDbEntity
8
0
100
AcDbSpline
70
0
71
3
62
2
74
2
12
-0.15552
22
-0.60534
32
0.00000
13
0.56726
23
-0.26237
33
0.00000
11
3.92482
21
2.92549
31
0.00000
11
4.74831
21
1.19007
31
0.00000
0
LINE
5
B2
330
9C
100
AcDbEntity
8
0
100
AcDbLine
10
4.74831
20
1.19007
11
8.79258
21
-0.68047
62
2
0
SPLINE
5
B3
330
9C
100
AcDbEntity
8
0
100
AcDbSpline
70
0
71
3
62
2
74
2
12
0.56726
22
-0.26237
32
0.00000
13
-0.61356
23
-0.11901
33
0.00000
11
8.79258
21
-0.68047
31
0.00000
11
8.69998
21
-1.44323
31
0.00000
0
LINE
5
B4
330
9C
100
AcDbEntity
8
0
100
AcDbLine
10
8.69998
20
-1.44323
11
4.32560
21
-2.29170
62
2
0
SPLINE
5
B5
330
9C
100
AcDbEntity
8
0
100
AcDbSpline
70
0
71
3
62
2
74
2
12
-0.61356
22
-0.11901
32
0.00000
13
0.00615
23
-0.62497
33
0.00000
11
4.32560
21
-2.29170
31
0.00000
11
3.11077
21
-3.77966
31
0.00000
0
LINE
5
B6
330
9C
100
AcDbEntity
8
0
100
AcDbLine
10
3.11077
20
-3.77966
11
3.15463
21
-8.23534
62
2
0
SPLINE
5
B7
330
9C
100
AcDbEntity
8
0
100
AcDbSpline
70
0
71
3
62
2
74
2
12
0.00615
22
-0.62497
32
0.00000
13
-0.31250
23
0.54127
33
0.00000
11
3.15463
21
-8.23534
31
0.00000
11
2.54193
21
-8.40275
31
0.00000
0
ENDBLK
5
B8
330
9C
100
AcDbEntity
8
0
100
AcDbBlockEnd
0
BLOCK
5
BB
330
BA
100
AcDbEntity
8
0
100
AcDbBlockBegin
2
star2
70
0
10
0.00000
20
0.00000
30
0.00000
3
star2
1

0
LINE
5
BC
330
BA
100
AcDbEntity
8
0
100
AcDbLine
10
2.54193
20
-8.40275
11
0.62500
21
-5.08253
62
2
0
SPLINE
5
BD
330
BA
100
AcDbEntity
8
0
100
AcDbSpline
70
0
71
3
62
2
74
2
12
-0.31250
22
0.54127
32
0.00000
13
-0.31250
23
-0.54127
33
0.00000
11
0.62500
21
-5.08253
31
0.00000
11
-0.62500
21
-5.08253
31
0.00000
0
LINE
5
BE
330
BA
100
AcDbEntity
8
0
100
AcDbLine
10
-0.62500
20
-5.08253
11
-2.54193
21
-8.40275
62
2
0
SPLINE
5
BF
330
BA
100
AcDbEntity
8
0
100
AcDbSpline
70
0
71
3
62
2
74
2
12
-0.31250
22
-0.54127
32
0.00000
13
0.00615
23
0.62497
33
0.00000
11
-2.54193
21
-8.40275
31
0.00000
11
-3.15463
21
-8.23534
31
0.00000
0
LINE
5
C0
330
BA
100
AcDbEntity
8
0
100
AcDbLine
10
-3.15463
20
-8.23534
11
-3.11077
21
-3.77966
62
2
0
SPLINE
5
C1
330
BA
100
AcDbEntity
8
0
100
AcDbSpline
70
0
71
3
62
2
74
2
12
0.00615
22
0.62497
32
0.00000
13
-0.61356
23
0.11901
33
0.00000
11
-3.11077
21
-3.77966
31
0.00000
11
-4.32560
21
-2.29170
31
0.00000
0
LINE
5
C2
330
BA
100
AcDbEntity
8
0
100
AcDbLine
10
-4.32560
20
-2.29170
11
-8.69998
21
-1.44323
62
2
0
SPLINE
5
C3
330
BA
100
AcDbEntity
8
0
100
AcDbSpline
70
0
71
3
62
2
74
2
12
-0.61356
22
0.11901
32
0.00000
13
0.56726
23
0.26237
33
0.00000
11
-8.69998
21
-1.44323
31
0.00000
11
-8.79258
21
-0.68047
31
0.00000
0
LINE
5
C4
330
BA
100
AcDbEntity
8
0
100
AcDbLine
10
-8.79258
20
-0.68047
11
-4.74831
21
1.19007
62
2
0
SPLINE
5
C5
330
BA
100
AcDbEntity
8
0
100
AcDbSpline
70
0
71
3
62
2
74
2
12
0.56726
22
0.26237
32
0.00000
13
-0.15552
23
0.60534
33
0.00000
11
-4.74831
21
1.19007
31
0.00000
11
-3.92482
21
2.92549
31
0.00000
0
LINE
5
C6
330
BA
100
AcDbEntity
8
0
100
AcDbLine
10
-3.92482
20
2.92549
11
-5.03358
21
7.24124
62
2
0
SPLINE
5
C7
330
BA
100
AcDbEntity
8
0
100
AcDbSpline
70
0
71
3
62
2
74
2
12
-0.15552
22
0.60534
32
0.00000
13
0.48022
23
-0.40001
33
0.00000
11
-5.03358
21
7.24124
31
0.00000
11
-4.38417
21
7.65190
31
0.00000
0
LINE
5
C8
330
BA
100
AcDbEntity
8
0
100
AcDbLine
10
-4.38417
20
7.65190
11
-1.55000
21
5.29111
62
2
0
LINE
5
C9
330
BA
100
AcDbEntity
8
0
100
AcDbLine
10
-1.55000
20
5.29111
11
-1.55000
21
0.00000
62
2
0
LINE
5
CA
330
BA
100
AcDbEntity
8
0
100
AcDbLine
10
-1.55000
20
0.00000
11
1.55000
21
0.00000
62
2
0
LINE
5
CB
330
BA
100
AcDbEntity
8
0
100
AcDbLine
10
1.55000
20
0.00000
11
1.55000
21
5.29111
62
2
0
LINE
5
CC
330
BA
100
AcDbEntity
8
0
100
AcDbLine
10
1.55000
20
5.29111
11
4.38417
21
7.65190
62
2
0
SPLINE
5
CD
330
BA
100
AcDbEntity
8
0
100
AcDbSpline
70
0
71
3
62
2
74
2
12
0.48022
22
0.40001
32
0.00000
13
-0.15552
23
-0.60534
33
0.00000
11
4.38417
21
7.65190
31
0.00000
11
5.03358
21
7.24124
31
0.00000
0
LINE
5
CE
330
BA
100
AcDbEntity
8
0
100
AcDbLine
10
5.03358
20
7.24124
11
3.92482
21
2.92549
62
2
0
SPLINE
5
CF
330
BA
100
AcDbEntity
8
0
100
AcDbSpline
70
0
71
3
62
2
74
2
12
-0.15552
22
-0.60534
32
0.00000
13
0.56726
23
-0.26237
33
0.00000
11
3.92482
21
2.92549
31
0.00000
11
4.74831
21
1.19007
31
0.00000
0
LINE
5
D0
330
BA
100
AcDbEntity
8
0
100
AcDbLine
10
4.74831
20
1.19007
11
8.79258
21
-0.68047
62
2
0
SPLINE
5
D1
330
BA
100
AcDbEntity
8
0
100
AcDbSpline
70
0
71
3
62
2
74
2
12
0.56726
22
-0.26237
32
0.00000
13
-0.61356
23
-0.11901
33
0.00000
11
8.79258
21
-0.68047
31
0.00000
11
8.69998
21
-1.44323
31
0.00000
0
LINE
5
D2
330
BA
100
AcDbEntity
8
0
100
AcDbLine
10
8.69998
20
-1.44323
11
4.32560
21
-2.29170
62
2
0
SPLINE
5
D3
330
BA
100
AcDbEntity
8
0
100
AcDbSpline
70
0
71
3
62
2
74
2
12
-0.61356
22
-0.11901
32
0.00000
13
0.00615
23
-0.62497
33
0.00000
11
4.32560
21
-2.29170
31
0.00000
11
3.11077
21
-3.77966
31
0.00000
0
LINE
5
D4
330
BA
100
AcDbEntity
8
0
100
AcDbLine
10
3.11077
20
-3.77966
11
3.15463
21
-8.23534
62
2
0
SPLINE
5
D5
330
BA
100
AcDbEntity
8
0
100
AcDbSpline
70
0
71
3
62
2
74
2
12
0.00615
22
-0.62497
32
0.00000
13
-0.31250
23
0.54127
33
0.00000
11
3.15463
21
-8.23534
31
0.00000
11
2.54193
21
-8.40275
31
0.00000
0
ENDBLK
5
D6
330
BA
100
AcDbEntity
8
0
100
AcDbBlockEnd
0
BLOCK
5
D9
330
D8
100
AcDbEntity
8
0
100
AcDbBlockBegin
2
mini star
70
0
10
0.00000
20
0.00000
30
0.00000
3
mini star
1

0
LINE
5
DA
330
D8
100
AcDbEntity
8
0
100
AcDbLine
10
2.26094
20
0.07315
11
1.10508
21
0.42685
62
2
0
SPLINE
5
DB
330
D8
100
AcDbEntity
8
0
100
AcDbSpline
70
0
71
3
62
2
74
2
12
-0.11953
22
0.03658
32
0.00000
13
0.02809
23
0.12180
33
0.00000
11
1.10508
21
0.42685
31
0.00000
11
0.92220
21
0.74361
31
0.00000
0
LINE
5
DC
330
D8
100
AcDbEntity
8
0
100
AcDbLine
10
0.92220
20
0.74361
11
1.19382
21
1.92146
62
2
0
SPLINE
5
DD
330
D8
100
AcDbEntity
8
0
100
AcDbSpline
70
0
71
3
62
2
74
2
12
0.02809
22
0.12180
32
0.00000
13
-0.09144
23
-0.08523
33
0.00000
11
1.19382
21
1.92146
31
0.00000
11
1.06712
21
1.99461
31
0.00000
0
LINE
5
DE
330
D8
100
AcDbEntity
8
0
100
AcDbLine
10
1.06712
20
1.99461
11
0.18288
21
1.17045
62
2
0
SPLINE
5
DF
330
D8
100
AcDbEntity
8
0
100
AcDbSpline
70
0
71
3
62
2
74
2
12
-0.09144
22
-0.08523
32
0.00000
13
-0.09144
23
0.08523
33
0.00000
11
0.18288
21
1.17045
31
0.00000
11
-0.18288
21
1.17045
31
0.00000
0
LINE
5
E0
330
D8
100
AcDbEntity
8
0
100
AcDbLine
10
-0.18288
20
1.17045
11
-1.06712
21
1.99461
62
2
0
SPLINE
5
E1
330
D8
100
AcDbEntity
8
0
100
AcDbSpline
70
0
71
3
62
2
74
2
12
-0.09144
22
0.08523
32
0.00000
13
0.02809
23
-0.12180
33
0.00000
11
-1.06712
21
1.99461
31
0.00000
11
-1.19382
21
1.92146
31
0.00000
0
LINE
5
E2
330
D8
100
AcDbEntity
8
0
100
AcDbLine
10
-1.19382
20
1.92146
11
-0.92220
21
0.74361
62
2
0
SPLINE
5
E3
330
D8
100
AcDbEntity
8
0
100
AcDbSpline
70
0
71
3
62
2
74
2
12
0.02809
22
-0.12180
32
0.00000
13
-0.11953
23
-0.03658
33
0.00000
11
-0.92220
21
0.74361
31
0.00000
11
-1.10508
21
0.42685
31
0.00000
0
LINE
5
E4
330
D8
100
AcDbEntity
8
0
100
AcDbLine
10
-1.10508
20
0.42685
11
-2.26094
21
0.07315
62
2
0
SPLINE
5
E5
330
D8
100
AcDbEntity
8
0
100
AcDbSpline
70
0
71
3
62
2
74
2
12
-0.11953
22
-0.03658
32
0.00000
13
0.11953
23
-0.03658
33
0.00000
11
-2.26094
21
0.07315
31
0.00000
11
-2.26094
21
-0.07315
31
0.00000
0
LINE
5
E6
330
D8
100
AcDbEntity
8
0
100
AcDbLine
10
-2.26094
20
-0.07315
11
-1.10508
21
-0.42685
62
2
0
SPLINE
5
E7
330
D8
100
AcDbEntity
8
0
100
AcDbSpline
70
0
71
3
62
2
74
2
12
0.11953
22
-0.03658
32
0.00000
13
-0.02809
23
-0.12180
33
0.00000
11
-1.10508
21
-0.42685
31
0.00000
11
-0.92220
21
-0.74361
31
0.00000
0
LINE
5
E8
330
D8
100
AcDbEntity
8
0
100
AcDbLine
10
-0.92220
20
-0.74361
11
-1.19382
21
-1.92146
62
2
0
SPLINE
5
E9
330
D8
100
AcDbEntity
8
0
100
AcDbSpline
70
0
71
3
62
2
74
2
12
-0.02809
22
-0.12180
32
0.00000
13
0.09144
23
0.08523
33
0.00000
11
-1.19382
21
-1.92146
31
0.00000
11
-1.06712
21
-1.99461
31
0.00000
0
LINE
5
EA
330
D8
100
AcDbEntity
8
0
100
AcDbLine
10
-1.06712
20
-1.99461
11
-0.18288
21
-1.17045
62
2
0
SPLINE
5
EB
330
D8
100
AcDbEntity
8
0
100
AcDbSpline
70
0
71
3
62
2
74
2
12
0.09144
22
0.08523
32
0.00000
13
0.09144
23
-0.08523
33
0.00000
11
-0.18288
21
-1.17045
31
0.00000
11
0.18288
21
-1.17045
31
0.00000
0
LINE
5
EC
330
D8
100
AcDbEntity
8
0
100
AcDbLine
10
0.18288
20
-1.17045
11
1.06712
21
-1.99461
62
2
0
SPLINE
5
ED
330
D8
100
AcDbEntity
8
0
100
AcDbSpline
70
0
71
3
62
2
74
2
12
0.09144
22
-0.08523
32
0.00000
13
-0.02809
23
0.12180
33
0.00000
11
1.06712
21
-1.99461
31
0.00000
11
1.19382
21
-1.92146
31
0.00000
0
LINE
5
EE
330
D8
100
AcDbEntity
8
0
100
AcDbLine
10
1.19382
20
-1.92146
11
0.92220
21
-0.74361
62
2
0
SPLINE
5
EF
330
D8
100
AcDbEntity
8
0
100
AcDbSpline
70
0
71
3
62
2
74
2
12
-0.02809
22
0.12180
32
0.00000
13
0.11953
23
0.03658
33
0.00000
11
0.92220
21
-0.74361
31
0.00000
11
1.10508
21
-0.42685
31
0.00000
0
LINE
5
F0
330
D8
100
AcDbEntity
8
0
100
AcDbLine
10
1.10508
20
-0.42685
11
2.26094
21
-0.07315
62
2
0
SPLINE
5
F1
330
D8
100
AcDbEntity
8
0
100
AcDbSpline
70
0
71
3
62
2
74
2
12
0.11953
22
0.03658
32
0.00000
13
-0.11953
23
0.03658
33
0.00000
11
2.26094
21
-0.07315
31
0.00000
11
2.26094
21
0.07315
31
0.00000
0
ENDBLK
5
F2
330
D8
100
AcDbEntity
8
0
100
AcDbBlockEnd
0
ENDSEC
0
SECTION
2
ENTITIES
999
0
0
INSERT
5
47
330
16
100
AcDbEntity
8
0
100
AcDbBlockReference
10
27.34538
20
100.00000
2
tree1
70
1
71
1
0
INSERT
5
74
330
16
100
AcDbEntity
8
0
100
AcDbBlockReference
10
82.03614
20
100.00000
2
tree2
70
1
71
1
0
INSERT
5
9B
330
16
100
AcDbEntity
8
0
100
AcDbBlockReference
10
54.69076
20
85.00000
2
base
70
1
71
1
0
INSERT
5
B9
330
16
100
AcDbEntity
8
0
100
AcDbBlockReference
10
54.69076
20
60.00000
2
star1
70
1
71
1
0
INSERT
5
D7
330
16
100
AcDbEntity
8
0
100
AcDbBlockReference
10
54.69076
20
10.00000
2
star2
70
1
71
1
0
INSERT
5
F3
330
16
100
AcDbEntity
8
0
100
AcDbBlockReference
10
49.69076
20
47.50000
2
mini star
70
1
71
1
0
INSERT
5
F4
330
16
100
AcDbEntity
8
0
100
AcDbBlockReference
10
54.69076
20
47.50000
2
mini star
70
1
71
1
0
INSERT
5
F5
330
16
100
AcDbEntity
8
0
100
AcDbBlockReference
10
59.69076
20
47.50000
2
mini star
70
1
71
1
0
INSERT
5
F6
330
16
100
AcDbEntity
8
0
100
AcDbBlockReference
10
54.69076
20
42.50000
2
mini star
70
1
71
1
0
INSERT
5
F7
330
16
100
AcDbEntity
8
0
100
AcDbBlockReference
10
54.69076
20
37.50000
2
mini star
70
1
71
1
0
INSERT
5
F8
330
16
100
AcDbEntity
8
0
100
AcDbBlockReference
10
54.69076
20
32.50000
2
mini star
70
1
71
1
0
ENDSEC
0
SECTION
2
OBJECTS
999
0
0
DICTIONARY
5
A
330
0
100
AcDbDictionary
280
0
281
1
3
ACAD_IMAGE_DICT
350
B
3
ACAD_GROUP
350
C
3
ACAD_IMAGE_VARS
350
D
0
DICTIONARY
5
B
330
A
100
AcDbDictionary
280
0
281
1
0
DICTIONARY
5
C
330
A
100
AcDbDictionary
280
0
281
1
3
mini stars
350
F9
0
RASTERVARIABLES
5
D
330
A
100
AcDbRasterVariables
90
0
70
1
71
1
72
1
0
GROUP
5
F9
102
{ACAD_REACTORS
330
C
102
}
100
AcDbGroup
71
1
300
mini stars
70
0
340
F3
340
F4
340
F5
340
F6
340
F7
340
F8
0
ENDSEC
0
EOF
