0
SECTION
2
HEADER
999
0
999
DXF file generated by DXFWriter.
9
$ACADVER
1
AC1027
9
$MEASUREMENT
70
1
9
$FINGERPRINTGUID
2
{8164b064-0ac4-4500-aed1-89fa772701f4}
9
$VERSIONGUID
2
{0c6d6bc2-8fbf-4f75-8da5-aa4b3bfd1998}
9
$EXTMIN
10
-25.92124
20
-90.00000
9
$EXTMAX
10
79.45121
20
90.00000
9
$HANDSEED
5
EA
0
ENDSEC
0
SECTION
2
TABLES
999
0
0
TABLE
2
VPORT
5
1
330
0
100
AcDbSymbolTable
70
0
0
ENDTAB
0
TABLE
2
LTYPE
5
2
330
0
100
AcDbSymbolTable
70
6
0
LTYPE
5
F
330
2
100
AcDbSymbolTableRecord
100
AcDbLinetypeTableRecord
2
CONTINUOUS
3
CONTINUOUS
70
64
72
65
73
0
74
0
40
0.0000000000000000
3
CONTINUOUS
0
LTYPE
5
10
330
2
100
AcDbSymbolTableRecord
100
AcDbLinetypeTableRecord
2
DASHED
3
DASHED
70
64
72
65
73
2
74
0
40
2.0000000000000000
49
1.0000000000000000
74
0
49
-1.0000000000000000
74
0
3
DASHED
0
LTYPE
5
11
330
2
100
AcDbSymbolTableRecord
100
AcDbLinetypeTableRecord
2
DOTTED
3
DOTTED
70
64
72
65
73
2
74
0
40
0.2000000000000000
49
0.0000000000000000
74
0
49
-0.2000000000000000
74
0
3
DOTTED
0
LTYPE
5
12
330
2
100
AcDbSymbolTableRecord
100
AcDbLinetypeTableRecord
2
DASHDOTTED
3
DASHDOTTED
70
64
72
65
73
4
74
0
40
2.0000000000000000
49
1.0000000000000000
74
0
49
-0.5000000000000000
74
0
49
0.0000000000000000
74
0
49
-0.5000000000000000
74
0
3
DASHDOTTED
0
LTYPE
5
13
330
2
100
AcDbSymbolTableRecord
100
AcDbLinetypeTableRecord
2
BYLAYER
3
ByLayer
70
64
72
65
73
0
74
0
40
0.0000000000000000
3
ByLayer
0
LTYPE
5
14
330
2
100
AcDbSymbolTableRecord
100
AcDbLinetypeTableRecord
2
BYBLOCK
3
ByBlock
70
64
72
65
73
0
74
0
40
0.0000000000000000
3
ByBlock
0
ENDTAB
0
TABLE
2
LAYER
5
3
330
0
100
AcDbSymbolTable
70
1
0
LAYER
5
15
330
3
100
AcDbSymbolTableRecord
100
AcDbLayerTableRecord
2
0
70
64
62
7
6
CONTINUOUS
370
25
390
0
0
ENDTAB
0
TABLE
2
STYLE
5
4
330
0
100
AcDbSymbolTable
70
0
0
ENDTAB
0
TABLE
2
VIEW
5
5
330
0
100
AcDbSymbolTable
70
0
0
ENDTAB
0
TABLE
2
UCS
5
6
330
0
100
AcDbSymbolTable
70
0
0
ENDTAB
0
TABLE
2
APPID
5
7
330
0
100
AcDbSymbolTable
70
1
0
APPID
5
E
330
7
100
AcDbSymbolTableRecord
100
AcDbRegAppTableRecord
2
ACAD
70
0
0
ENDTAB
0
TABLE
2
DIMSTYLE
5
8
330
0
100
AcDbSymbolTable
100
AcDbDimStyleTable
70
0
0
ENDTAB
0
TABLE
2
BLOCK_RECORD
5
9
330
0
100
AcDbSymbolTable
70
8
0
BLOCK_RECORD
5
16
330
9
100
AcDbSymbolTableRecord
100
AcDbBlockTableRecord
2
*MODEL_SPACE
70
0
280
1
281
0
0
BLOCK_RECORD
5
19
330
9
100
AcDbSymbolTableRecord
100
AcDbBlockTableRecord
2
*PAPER_SPACE
70
0
280
1
281
0
0
BLOCK_RECORD
5
1C
330
9
100
AcDbSymbolTableRecord
100
AcDbBlockTableRecord
2
tree1
70
0
280
1
281
0
0
BLOCK_RECORD
5
40
330
9
100
AcDbSymbolTableRecord
100
AcDbBlockTableRecord
2
tree2
70
0
280
1
281
0
0
BLOCK_RECORD
5
65
330
9
100
AcDbSymbolTableRecord
100
AcDbBlockTableRecord
2
base
70
0
280
1
281
0
0
BLOCK_RECORD
5
8C
330
9
100
AcDbSymbolTableRecord
100
AcDbBlockTableRecord
2
star1
70
0
280
1
281
0
0
BLOCK_RECORD
5
AA
330
9
100
AcDbSymbolTableRecord
100
AcDbBlockTableRecord
2
star2
70
0
280
1
281
0
0
BLOCK_RECORD
5
C8
330
9
100
AcDbSymbolTableRecord
100
AcDbBlockTableRecord
2
mini star
70
0
280
1
281
0
0
ENDTAB
0
ENDSEC
0
SECTION
2
BLOCKS
999
0
0
BLOCK
5
17
330
16
100
AcDbEntity
8
0
100
AcDbBlockBegin
2
*MODEL_SPACE
70
0
10
0.00000
20
0.00000
30
0.00000
3
*MODEL_SPACE
1

0
ENDBLK
5
18
330
16
100
AcDbEntity
8
0
100
AcDbBlockEnd
0
BLOCK
5
1A
330
19
100
AcDbEntity
8
0
100
AcDbBlockBegin
2
*PAPER_SPACE
70
0
10
0.00000
20
0.00000
30
0.00000
3
*PAPER_SPACE
1

0
ENDBLK
5
1B
330
19
100
AcDbEntity
8
0
100
AcDbBlockEnd
0
BLOCK
5
1D
330
1C
100
AcDbEntity
8
0
100
AcDbBlockBegin
2
tree1
70
0
10
0.00000
20
0.00000
30
0.00000
3
tree1
1

0
LINE
5
1E
330
1C
100
AcDbEntity
8
0
100
AcDbLine
10
0.56250
20
-0.97428
11
11.99618
21
-20.77799
62
3
0
SPLINE
5
1F
330
1C
100
AcDbEntity
8
0
100
AcDbSpline
70
0
71
3
62
3
74
2
12
0.28125
22
-0.48714
32
0.00000
13
-0.56250
23
0.00000
33
0.00000
11
11.99618
21
-20.77799
31
0.00000
11
11.43368
21
-21.75227
31
0.00000
0
LINE
5
20
330
1C
100
AcDbEntity
8
0
100
AcDbLine
10
11.43368
20
-21.75227
11
6.50011
21
-21.75227
62
3
0
SPLINE
5
21
330
1C
100
AcDbEntity
8
0
100
AcDbSpline
70
0
71
3
62
3
74
2
12
-0.56250
22
0.00000
32
0.00000
13
0.28125
23
-0.48714
33
0.00000
11
6.50011
21
-21.75227
31
0.00000
11
5.93761
21
-22.72654
31
0.00000
0
LINE
5
22
330
1C
100
AcDbEntity
8
0
100
AcDbLine
10
5.93761
20
-22.72654
11
18.62716
21
-44.70548
62
3
0
SPLINE
5
23
330
1C
100
AcDbEntity
8
0
100
AcDbSpline
70
0
71
3
62
3
74
2
12
0.28125
22
-0.48714
32
0.00000
13
-0.56250
23
0.00000
33
0.00000
11
18.62716
21
-44.70548
31
0.00000
11
18.06466
21
-45.67976
31
0.00000
0
LINE
5
24
330
1C
100
AcDbEntity
8
0
100
AcDbLine
10
18.06466
20
-45.67976
11
12.41274
21
-45.67976
62
3
0
SPLINE
5
25
330
1C
100
AcDbEntity
8
0
100
AcDbSpline
70
0
71
3
62
3
74
2
12
-0.56250
22
0.00000
32
0.00000
13
0.28125
23
-0.48714
33
0.00000
11
12.41274
21
-45.67976
31
0.00000
11
11.85024
21
-46.65404
31
0.00000
0
LINE
5
26
330
1C
100
AcDbEntity
8
0
100
AcDbLine
10
11.85024
20
-46.65404
11
25.92124
21
-71.02572
62
3
0
SPLINE
5
27
330
1C
100
AcDbEntity
8
0
100
AcDbSpline
70
0
71
3
62
3
74
2
12
0.28125
22
-0.48714
32
0.00000
13
-0.56250
23
0.00000
33
0.00000
11
25.92124
21
-71.02572
31
0.00000
11
25.35874
21
-72.00000
31
0.00000
0
LINE
5
28
330
1C
100
AcDbEntity
8
0
100
AcDbLine
10
25.35874
20
-72.00000
11
5.62500
21
-72.00000
62
3
0
SPLINE
5
29
330
1C
100
AcDbEntity
8
0
100
AcDbSpline
70
0
71
3
62
3
74
2
12
-0.56250
22
0.00000
32
0.00000
13
0.00000
23
-0.56250
33
0.00000
11
5.62500
21
-72.00000
31
0.00000
11
4.50000
21
-73.12500
31
0.00000
0
LINE
5
2A
330
1C
100
AcDbEntity
8
0
100
AcDbLine
10
4.50000
20
-73.12500
11
4.50000
21
-90.00000
62
3
0
LINE
5
2B
330
1C
100
AcDbEntity
8
0
100
AcDbLine
10
4.50000
20
-90.00000
11
1.55000
21
-90.00000
62
3
0
LINE
5
2C
330
1C
100
AcDbEntity
8
0
100
AcDbLine
10
1.55000
20
-90.00000
11
1.55000
21
-45.00000
62
3
0
LINE
5
2D
330
1C
100
AcDbEntity
8
0
100
AcDbLine
10
1.55000
20
-45.00000
11
-1.55000
21
-45.00000
62
3
0
LINE
5
2E
330
1C
100
AcDbEntity
8
0
100
AcDbLine
10
-1.55000
20
-45.00000
11
-1.55000
21
-90.00000
62
3
0
LINE
5
2F
330
1C
100
AcDbEntity
8
0
100
AcDbLine
10
-1.55000
20
-90.00000
11
-4.50000
21
-90.00000
62
3
0
LINE
5
30
330
1C
100
AcDbEntity
8
0
100
AcDbLine
10
-4.50000
20
-90.00000
11
-4.50000
21
-73.12500
62
3
0
SPLINE
5
31
330
1C
100
AcDbEntity
8
0
100
AcDbSpline
70
0
71
3
62
3
74
2
12
0.00000
22
0.56250
32
0.00000
13
-0.56250
23
0.00000
33
0.00000
11
-4.50000
21
-73.12500
31
0.00000
11
-5.62500
21
-72.00000
31
0.00000
0
LINE
5
32
330
1C
100
AcDbEntity
8
0
100
AcDbLine
10
-5.62500
20
-72.00000
11
-25.35874
21
-72.00000
62
3
0
SPLINE
5
33
330
1C
100
AcDbEntity
8
0
100
AcDbSpline
70
0
71
3
62
3
74
2
12
-0.56250
22
0.00000
32
0.00000
13
0.28125
23
0.48714
33
0.00000
11
-25.35874
21
-72.00000
31
0.00000
11
-25.92124
21
-71.02572
31
0.00000
0
LINE
5
34
330
1C
100
AcDbEntity
8
0
100
AcDbLine
10
-25.92124
20
-71.02572
11
-11.85024
21
-46.65404
62
3
0
SPLINE
5
35
330
1C
100
AcDbEntity
8
0
100
AcDbSpline
70
0
71
3
62
3
74
2
12
0.28125
22
0.48714
32
0.00000
13
-0.56250
23
0.00000
33
0.00000
11
-11.85024
21
-46.65404
31
0.00000
11
-12.41274
21
-45.67976
31
0.00000
0
LINE
5
36
330
1C
100
AcDbEntity
8
0
100
AcDbLine
10
-12.41274
20
-45.67976
11
-18.06466
21
-45.67976
62
3
0
SPLINE
5
37
330
1C
100
AcDbEntity
8
0
100
AcDbSpline
70
0
71
3
62
3
74
2
12
-0.56250
22
0.00000
32
0.00000
13
0.28125
23
0.48714
33
0.00000
11
-18.06466
21
-45.67976
31
0.00000
11
-18.62716
21
-44.70548
31
0.00000
0
LINE
5
38
330
1C
100
AcDbEntity
8
0
100
AcDbLine
10
-18.62716
20
-44.70548
11
-5.93761
21
-22.72654
62
3
0
SPLINE
5
39
330
1C
100
AcDbEntity
8
0
100
AcDbSpline
70
0
71
3
62
3
74
2
12
0.28125
22
0.48714
32
0.00000
13
-0.56250
23
0.00000
33
0.00000
11
-5.93761
21
-22.72654
31
0.00000
11
-6.50011
21
-21.75227
31
0.00000
0
LINE
5
3A
330
1C
100
AcDbEntity
8
0
100
AcDbLine
10
-6.50011
20
-21.75227
11
-11.43368
21
-21.75227
62
3
0
SPLINE
5
3B
330
1C
100
AcDbEntity
8
0
100
AcDbSpline
70
0
71
3
62
3
74
2
12
-0.56250
22
0.00000
32
0.00000
13
0.28125
23
0.48714
33
0.00000
11
-11.43368
21
-21.75227
31
0.00000
11
-11.99618
21
-20.77799
31
0.00000
0
LINE
5
3C
330
1C
100
AcDbEntity
8
0
100
AcDbLine
10
-11.99618
20
-20.77799
11
-0.56250
21
-0.97428
62
3
0
SPLINE
5
3D
330
1C
100
AcDbEntity
8
0
100
AcDbSpline
70
0
71
3
62
3
74
2
12
0.28125
22
0.48714
32
0.00000
13
0.28125
23
-0.48714
33
0.00000
11
-0.56250
21
-0.97428
31
0.00000
11
0.56250
21
-0.97428
31
0.00000
0
ENDBLK
5
3E
330
1C
100
AcDbEntity
8
0
100
AcDbBlockEnd
0
BLOCK
5
41
330
40
100
AcDbEntity
8
0
100
AcDbBlockBegin
2
tree2
70
0
10
0.00000
20
0.00000
30
0.00000
3
tree2
1

0
LINE
5
42
330
40
100
AcDbEntity
8
0
100
AcDbLine
10
0.00000
20
-45.00000
11
1.55000
21
-45.00000
62
3
0
LINE
5
43
330
40
100
AcDbEntity
8
0
100
AcDbLine
10
1.55000
20
-45.00000
11
1.55000
21
-3.80968
62
3
0
SPLINE
5
44
330
40
100
AcDbEntity
8
0
100
AcDbSpline
70
0
71
3
62
3
74
2
12
0.00000
22
0.56250
32
0.00000
13
0.28125
23
-0.48714
33
0.00000
11
1.55000
21
-3.80968
31
0.00000
11
2.11250
21
-3.65896
31
0.00000
0
LINE
5
45
330
40
100
AcDbEntity
8
0
100
AcDbLine
10
2.11250
20
-3.65896
11
11.99618
21
-20.77799
62
3
0
SPLINE
5
46
330
40
100
AcDbEntity
8
0
100
AcDbSpline
70
0
71
3
62
3
74
2
12
0.28125
22
-0.48714
32
0.00000
13
-0.56250
23
0.00000
33
0.00000
11
11.99618
21
-20.77799
31
0.00000
11
11.43368
21
-21.75227
31
0.00000
0
LINE
5
47
330
40
100
AcDbEntity
8
0
100
AcDbLine
10
11.43368
20
-21.75227
11
6.50011
21
-21.75227
62
3
0
SPLINE
5
48
330
40
100
AcDbEntity
8
0
100
AcDbSpline
70
0
71
3
62
3
74
2
12
-0.56250
22
0.00000
32
0.00000
13
0.28125
23
-0.48714
33
0.00000
11
6.50011
21
-21.75227
31
0.00000
11
5.93761
21
-22.72654
31
0.00000
0
LINE
5
49
330
40
100
AcDbEntity
8
0
100
AcDbLine
10
5.93761
20
-22.72654
11
18.62716
21
-44.70548
62
3
0
SPLINE
5
4A
330
40
100
AcDbEntity
8
0
100
AcDbSpline
70
0
71
3
62
3
74
2
12
0.28125
22
-0.48714
32
0.00000
13
-0.56250
23
0.00000
33
0.00000
11
18.62716
21
-44.70548
31
0.00000
11
18.06466
21
-45.67976
31
0.00000
0
LINE
5
4B
330
40
100
AcDbEntity
8
0
100
AcDbLine
10
18.06466
20
-45.67976
11
12.41274
21
-45.67976
62
3
0
SPLINE
5
4C
330
40
100
AcDbEntity
8
0
100
AcDbSpline
70
0
71
3
62
3
74
2
12
-0.56250
22
0.00000
32
0.00000
13
0.28125
23
-0.48714
33
0.00000
11
12.41274
21
-45.67976
31
0.00000
11
11.85024
21
-46.65404
31
0.00000
0
LINE
5
4D
330
40
100
AcDbEntity
8
0
100
AcDbLine
10
11.85024
20
-46.65404
11
25.92124
21
-71.02572
62
3
0
SPLINE
5
4E
330
40
100
AcDbEntity
8
0
100
AcDbSpline
70
0
71
3
62
3
74
2
12
0.28125
22
-0.48714
32
0.00000
13
-0.56250
23
0.00000
33
0.00000
11
25.92124
21
-71.02572
31
0.00000
11
25.35874
21
-72.00000
31
0.00000
0
LINE
5
4F
330
40
100
AcDbEntity
8
0
100
AcDbLine
10
25.35874
20
-72.00000
11
5.62500
21
-72.00000
62
3
0
SPLINE
5
50
330
40
100
AcDbEntity
8
0
100
AcDbSpline
70
0
71
3
62
3
74
2
12
-0.56250
22
0.00000
32
0.00000
13
0.00000
23
-0.56250
33
0.00000
11
5.62500
21
-72.00000
31
0.00000
11
4.50000
21
-73.12500
31
0.00000
0
LINE
5
51
330
40
100
AcDbEntity
8
0
100
AcDbLine
10
4.50000
20
-73.12500
11
4.50000
21
-90.00000
62
3
0
LINE
5
52
330
40
100
AcDbEntity
8
0
100
AcDbLine
10
4.50000
20
-90.00000
11
-4.50000
21
-90.00000
62
3
0
LINE
5
53
330
40
100
AcDbEntity
8
0
100
AcDbLine
10
-4.50000
20
-90.00000
11
-4.50000
21
-73.12500
62
3
0
SPLINE
5
54
330
40
100
AcDbEntity
8
0
100
AcDbSpline
70
0
71
3
62
3
74
2
12
0.00000
22
0.56250
32
0.00000
13
-0.56250
23
0.00000
33
0.00000
11
-4.50000
21
-73.12500
31
0.00000
11
-5.62500
21
-72.00000
31
0.00000
0
LINE
5
55
330
40
100
AcDbEntity
8
0
100
AcDbLine
10
-5.62500
20
-72.00000
11
-25.35874
21
-72.00000
62
3
0
SPLINE
5
56
330
40
100
AcDbEntity
8
0
100
AcDbSpline
70
0
71
3
62
3
74
2
12
-0.56250
22
0.00000
32
0.00000
13
0.28125
23
0.48714
33
0.00000
11
-25.35874
21
-72.00000
31
0.00000
11
-25.92124
21
-71.02572
31
0.00000
0
LINE
5
57
330
40
100
AcDbEntity
8
0
100
AcDbLine
10
-25.92124
20
-71.02572
11
-11.85024
21
-46.65404
62
3
0
SPLINE
5
58
330
40
100
AcDbEntity
8
0
100
AcDbSpline
70
0
71
3
62
3
74
2
12
0.28125
22
0.48714
32
0.00000
13
-0.56250
23
0.00000
33
0.00000
11
-11.85024
21
-46.65404
31
0.00000
11
-12.41274
21
-45.67976
31
0.00000
0
LINE
5
59
330
40
100
AcDbEntity
8
0
100
AcDbLine
10
-12.41274
20
-45.67976
11
-18.06466
21
-45.67976
62
3
0
SPLINE
5
5A
330
40
100
AcDbEntity
8
0
100
AcDbSpline
70
0
71
3
62
3
74
2
12
-0.56250
22
0.00000
32
0.00000
13
0.28125
23
0.48714
33
0.00000
11
-18.06466
21
-45.67976
31
0.00000
11
-18.62716
21
-44.70548
31
0.00000
0
LINE
5
5B
330
40
100
AcDbEntity
8
0
100
AcDbLine
10
-18.62716
20
-44.70548
11
-5.93761
21
-22.72654
62
3
0
SPLINE
5
5C
330
40
100
AcDbEntity
8
0
100
AcDbSpline
70
0
71
3
62
3
74
2
12
0.28125
22
0.48714
32
0.00000
13
-0.56250
23
0.00000
33
0.00000
11
-5.93761
21
-22.72654
31
0.00000
11
-6.50011
21
-21.75227
31
0.00000
0
LINE
5
5D
330
40
100
AcDbEntity
8
0
100
AcDbLine
10
-6.50011
20
-21.75227
11
-11.43368
21
-21.75227
62
3
0
SPLINE
5
5E
330
40
100
AcDbEntity
8
0
100
AcDbSpline
70
0
71
3
62
3
74
2
12
-0.56250
22
0.00000
32
0.00000
13
0.28125
23
0.48714
33
0.00000
11
-11.43368
21
-21.75227
31
0.00000
11
-11.99618
21
-20.77799
31
0.00000
0
LINE
5
5F
330
40
100
AcDbEntity
8
0
100
AcDbLine
10
-11.99618
20
-20.77799
11
-2.11250
21
-3.65896
62
3
0
SPLINE
5
60
330
40
100
AcDbEntity
8
0
100
AcDbSpline
70
0
71
3
62
3
74
2
12
0.28125
22
0.48714
32
0.00000
13
0.00000
23
-0.56250
33
0.00000
11
-2.11250
21
-3.65896
31
0.00000
11
-1.55000
21
-3.80968
31
0.00000
0
LINE
5
61
330
40
100
AcDbEntity
8
0
100
AcDbLine
10
-1.55000
20
-3.80968
11
-1.55000
21
-45.00000
62
3
0
LINE
5
62
330
40
100
AcDbEntity
8
0
100
AcDbLine
10
-1.55000
20
-45.00000
11
0.00000
21
-45.00000
62
3
0
ENDBLK
5
63
330
40
100
AcDbEntity
8
0
100
AcDbBlockEnd
0
BLOCK
5
66
330
65
100
AcDbEntity
8
0
100
AcDbBlockBegin
2
base
70
0
10
0.00000
20
0.00000
30
0.00000
3
base
1

0
LINE
5
67
330
65
100
AcDbEntity
8
0
100
AcDbLine
10
12.49117
20
0.49789
11
6.46969
21
3.46966
0
SPLINE
5
68
330
65
100
AcDbEntity
8
0
100
AcDbSpline
70
0
71
3
74
2
12
-0.50441
22
0.24894
32
0.00000
13
-0.08089
23
0.55665
33
0.00000
11
6.46969
21
3.46966
31
0.00000
11
5.29909
21
5.08086
31
0.00000
0
LINE
5
69
330
65
100
AcDbEntity
8
0
100
AcDbLine
10
5.29909
20
5.08086
11
4.33350
21
11.72596
0
SPLINE
5
6A
330
65
100
AcDbEntity
8
0
100
AcDbSpline
70
0
71
3
74
2
12
-0.08089
22
0.55665
32
0.00000
13
-0.39263
23
-0.40280
33
0.00000
11
4.33350
21
11.72596
31
0.00000
11
3.38647
21
12.03367
31
0.00000
0
LINE
5
6B
330
65
100
AcDbEntity
8
0
100
AcDbLine
10
3.38647
20
12.03367
11
-1.30060
21
7.22523
0
SPLINE
5
6C
330
65
100
AcDbEntity
8
0
100
AcDbSpline
70
0
71
3
74
2
12
-0.39263
22
-0.40280
32
0.00000
13
-0.55440
23
0.09509
33
0.00000
11
-1.30060
21
7.22523
31
0.00000
11
-3.19467
21
6.60981
31
0.00000
0
LINE
5
6D
330
65
100
AcDbEntity
8
0
100
AcDbLine
10
-3.19467
20
6.60981
11
-9.81292
21
7.74493
0
SPLINE
5
6E
330
65
100
AcDbEntity
8
0
100
AcDbSpline
70
0
71
3
74
2
12
-0.55440
22
0.09509
32
0.00000
13
0.26175
23
-0.49789
33
0.00000
11
-9.81292
21
7.74493
31
0.00000
11
-10.39822
21
6.93933
31
0.00000
0
LINE
5
6F
330
65
100
AcDbEntity
8
0
100
AcDbLine
10
-10.39822
20
6.93933
11
-7.27351
21
0.99577
0
SPLINE
5
70
330
65
100
AcDbEntity
8
0
100
AcDbSpline
70
0
71
3
74
2
12
0.26175
22
-0.49789
32
0.00000
13
-0.26175
23
-0.49789
33
0.00000
11
-7.27351
21
0.99577
31
0.00000
11
-7.27351
21
-0.99577
31
0.00000
0
LINE
5
71
330
65
100
AcDbEntity
8
0
100
AcDbLine
10
-7.27351
20
-0.99577
11
-10.39822
21
-6.93933
0
SPLINE
5
72
330
65
100
AcDbEntity
8
0
100
AcDbSpline
70
0
71
3
74
2
12
-0.26175
22
-0.49789
32
0.00000
13
0.55440
23
0.09509
33
0.00000
11
-10.39822
21
-6.93933
31
0.00000
11
-9.81292
21
-7.74493
31
0.00000
0
LINE
5
73
330
65
100
AcDbEntity
8
0
100
AcDbLine
10
-9.81292
20
-7.74493
11
-3.19467
21
-6.60981
0
SPLINE
5
74
330
65
100
AcDbEntity
8
0
100
AcDbSpline
70
0
71
3
74
2
12
0.55440
22
0.09509
32
0.00000
13
0.39263
23
-0.40280
33
0.00000
11
-3.19467
21
-6.60981
31
0.00000
11
-1.30060
21
-7.22523
31
0.00000
0
LINE
5
75
330
65
100
AcDbEntity
8
0
100
AcDbLine
10
-1.30060
20
-7.22523
11
3.38647
21
-12.03367
0
SPLINE
5
76
330
65
100
AcDbEntity
8
0
100
AcDbSpline
70
0
71
3
74
2
12
0.39263
22
-0.40280
32
0.00000
13
0.08089
23
0.55665
33
0.00000
11
3.38647
21
-12.03367
31
0.00000
11
4.33350
21
-11.72596
31
0.00000
0
LINE
5
77
330
65
100
AcDbEntity
8
0
100
AcDbLine
10
4.33350
20
-11.72596
11
5.29909
21
-5.08086
0
SPLINE
5
78
330
65
100
AcDbEntity
8
0
100
AcDbSpline
70
0
71
3
74
2
12
0.08089
22
0.55665
32
0.00000
13
0.50441
23
0.24894
33
0.00000
11
5.29909
21
-5.08086
31
0.00000
11
6.46969
21
-3.46966
31
0.00000
0
LINE
5
79
330
65
100
AcDbEntity
8
0
100
AcDbLine
10
6.46969
20
-3.46966
11
12.49117
21
-0.49789
0
SPLINE
5
7A
330
65
100
AcDbEntity
8
0
100
AcDbSpline
70
0
71
3
74
2
12
0.50441
22
0.24894
32
0.00000
13
-0.50441
23
0.24894
33
0.00000
11
12.49117
21
-0.49789
31
0.00000
11
12.49117
21
0.49789
31
0.00000
0
POLYLINE
5
7B
330
65
100
AcDbEntity
8
0
100
AcDb2dPolyline
10
0.00000
20
0.00000
70
1
66
1
62
6
0
VERTEX
5
7C
330
65
100
AcDbEntity
8
0
100
AcDbVertex
100
AcDb2dVertex
10
-1.55000
20
4.50000
0
VERTEX
5
7D
330
65
100
AcDbEntity
8
0
100
AcDbVertex
100
AcDb2dVertex
10
-1.55000
20
1.55000
0
VERTEX
5
7E
330
65
100
AcDbEntity
8
0
100
AcDbVertex
100
AcDb2dVertex
10
-4.50000
20
1.55000
0
VERTEX
5
7F
330
65
100
AcDbEntity
8
0
100
AcDbVertex
100
AcDb2dVertex
10
-4.50000
20
-1.55000
0
VERTEX
5
80
330
65
100
AcDbEntity
8
0
100
AcDbVertex
100
AcDb2dVertex
10
-1.55000
20
-1.55000
0
VERTEX
5
81
330
65
100
AcDbEntity
8
0
100
AcDbVertex
100
AcDb2dVertex
10
-1.55000
20
-4.50000
0
VERTEX
5
82
330
65
100
AcDbEntity
8
0
100
AcDbVertex
100
AcDb2dVertex
10
1.55000
20
-4.50000
0
VERTEX
5
83
330
65
100
AcDbEntity
8
0
100
AcDbVertex
100
AcDb2dVertex
10
1.55000
20
-1.55000
0
VERTEX
5
84
330
65
100
AcDbEntity
8
0
100
AcDbVertex
100
AcDb2dVertex
10
4.50000
20
-1.55000
0
VERTEX
5
85
330
65
100
AcDbEntity
8
0
100
AcDbVertex
100
AcDb2dVertex
10
4.50000
20
1.55000
0
VERTEX
5
86
330
65
100
AcDbEntity
8
0
100
AcDbVertex
100
AcDb2dVertex
10
1.55000
20
1.55000
0
VERTEX
5
87
330
65
100
AcDbEntity
8
0
100
AcDbVertex
100
AcDb2dVertex
10
1.55000
20
4.50000
0
VERTEX
5
88
330
65
100
AcDbEntity
8
0
100
AcDbVertex
100
AcDb2dVertex
10
-1.55000
20
4.50000
0
SEQEND
5
89
330
65
100
AcDbEntity
0
ENDBLK
5
8A
330
65
100
AcDbEntity
8
0
100
AcDbBlockEnd
0
BLOCK
5
8D
330
8C
100
AcDbEntity
8
0
100
AcDbBlockBegin
2
star1
70
0
10
0.00000
20
0.00000
30
0.00000
3
star1
1

0
LINE
5
8E
330
8C
100
AcDbEntity
8
0
100
AcDbLine
10
2.28774
20
-7.56247
11
1.55000
21
-6.28468
62
2
0
LINE
5
8F
330
8C
100
AcDbEntity
8
0
100
AcDbLine
10
1.55000
20
-6.28468
11
1.55000
21
0.00000
62
2
0
LINE
5
90
330
8C
100
AcDbEntity
8
0
100
AcDbLine
10
1.55000
20
0.00000
11
-1.55000
21
0.00000
62
2
0
LINE
5
91
330
8C
100
AcDbEntity
8
0
100
AcDbLine
10
-1.55000
20
0.00000
11
-1.55000
21
-6.28468
62
2
0
LINE
5
92
330
8C
100
AcDbEntity
8
0
100
AcDbLine
10
-1.55000
20
-6.28468
11
-2.28774
21
-7.56247
62
2
0
SPLINE
5
93
330
8C
100
AcDbEntity
8
0
100
AcDbSpline
70
0
71
3
62
2
74
2
12
-0.28125
22
-0.48714
32
0.00000
13
0.00554
23
0.56247
33
0.00000
11
-2.28774
21
-7.56247
31
0.00000
11
-2.83916
21
-7.41181
31
0.00000
0
LINE
5
94
330
8C
100
AcDbEntity
8
0
100
AcDbLine
10
-2.83916
20
-7.41181
11
-2.79970
21
-3.40169
62
2
0
SPLINE
5
95
330
8C
100
AcDbEntity
8
0
100
AcDbSpline
70
0
71
3
62
2
74
2
12
0.00554
22
0.56247
32
0.00000
13
-0.55221
23
0.10711
33
0.00000
11
-2.79970
21
-3.40169
31
0.00000
11
-3.89304
21
-2.06253
31
0.00000
0
LINE
5
96
330
8C
100
AcDbEntity
8
0
100
AcDbLine
10
-3.89304
20
-2.06253
11
-7.82998
21
-1.29891
62
2
0
SPLINE
5
97
330
8C
100
AcDbEntity
8
0
100
AcDbSpline
70
0
71
3
62
2
74
2
12
-0.55221
22
0.10711
32
0.00000
13
0.51054
23
0.23613
33
0.00000
11
-7.82998
21
-1.29891
31
0.00000
11
-7.91332
21
-0.61243
31
0.00000
0
LINE
5
98
330
8C
100
AcDbEntity
8
0
100
AcDbLine
10
-7.91332
20
-0.61243
11
-4.27348
21
1.07106
62
2
0
SPLINE
5
99
330
8C
100
AcDbEntity
8
0
100
AcDbSpline
70
0
71
3
62
2
74
2
12
0.51054
22
0.23613
32
0.00000
13
-0.13997
23
0.54481
33
0.00000
11
-4.27348
21
1.07106
31
0.00000
11
-3.53234
21
2.63294
31
0.00000
0
LINE
5
9A
330
8C
100
AcDbEntity
8
0
100
AcDbLine
10
-3.53234
20
2.63294
11
-4.53022
21
6.51712
62
2
0
SPLINE
5
9B
330
8C
100
AcDbEntity
8
0
100
AcDbSpline
70
0
71
3
62
2
74
2
12
-0.13997
22
0.54481
32
0.00000
13
0.43220
23
-0.36001
33
0.00000
11
-4.53022
21
6.51712
31
0.00000
11
-3.94575
21
6.88671
31
0.00000
0
LINE
5
9C
330
8C
100
AcDbEntity
8
0
100
AcDbLine
10
-3.94575
20
6.88671
11
-0.86440
21
4.32002
62
2
0
SPLINE
5
9D
330
8C
100
AcDbEntity
8
0
100
AcDbSpline
70
0
71
3
62
2
74
2
12
0.43220
22
-0.36001
32
0.00000
13
0.43220
23
0.36001
33
0.00000
11
-0.86440
21
4.32002
31
0.00000
11
0.86440
21
4.32002
31
0.00000
0
LINE
5
9E
330
8C
100
AcDbEntity
8
0
100
AcDbLine
10
0.86440
20
4.32002
11
3.94575
21
6.88671
62
2
0
SPLINE
5
9F
330
8C
100
AcDbEntity
8
0
100
AcDbSpline
70
0
71
3
62
2
74
2
12
0.43220
22
0.36001
32
0.00000
13
-0.13997
23
-0.54481
33
0.00000
11
3.94575
21
6.88671
31
0.00000
11
4.53022
21
6.51712
31
0.00000
0
LINE
5
A0
330
8C
100
AcDbEntity
8
0
100
AcDbLine
10
4.53022
20
6.51712
11
3.53234
21
2.63294
62
2
0
SPLINE
5
A1
330
8C
100
AcDbEntity
8
0
100
AcDbSpline
70
0
71
3
62
2
74
2
12
-0.13997
22
-0.54481
32
0.00000
13
0.51054
23
-0.23613
33
0.00000
11
3.53234
21
2.63294
31
0.00000
11
4.27348
21
1.07106
31
0.00000
0
LINE
5
A2
330
8C
100
AcDbEntity
8
0
100
AcDbLine
10
4.27348
20
1.07106
11
7.91332
21
-0.61243
62
2
0
SPLINE
5
A3
330
8C
100
AcDbEntity
8
0
100
AcDbSpline
70
0
71
3
62
2
74
2
12
0.51054
22
-0.23613
32
0.00000
13
-0.55221
23
-0.10711
33
0.00000
11
7.91332
21
-0.61243
31
0.00000
11
7.82998
21
-1.29891
31
0.00000
0
LINE
5
A4
330
8C
100
AcDbEntity
8
0
100
AcDbLine
10
7.82998
20
-1.29891
11
3.89304
21
-2.06253
62
2
0
SPLINE
5
A5
330
8C
100
AcDbEntity
8
0
100
AcDbSpline
70
0
71
3
62
2
74
2
12
-0.55221
22
-0.10711
32
0.00000
13
0.00554
23
-0.56247
33
0.00000
11
3.89304
21
-2.06253
31
0.00000
11
2.79970
21
-3.40169
31
0.00000
0
LINE
5
A6
330
8C
100
AcDbEntity
8
0
100
AcDbLine
10
2.79970
20
-3.40169
11
2.83916
21
-7.41181
62
2
0
SPLINE
5
A7
330
8C
100
AcDbEntity
8
0
100
AcDbSpline
70
0
71
3
62
2
74
2
12
0.00554
22
-0.56247
32
0.00000
13
-0.28125
23
0.48714
33
0.00000
11
2.83916
21
-7.41181
31
0.00000
11
2.28774
21
-7.56247
31
0.00000
0
ENDBLK
5
A8
330
8C
100
AcDbEntity
8
0
100
AcDbBlockEnd
0
BLOCK
5
AB
330
AA
100
AcDbEntity
8
0
100
AcDbBlockBegin
2
star2
70
0
10
0.00000
20
0.00000
30
0.00000
3
star2
1

0
LINE
5
AC
330
AA
100
AcDbEntity
8
0
100
AcDbLine
10
2.28774
20
-7.56247
11
0.56250
21
-4.57428
62
2
0
SPLINE
5
AD
330
AA
100
AcDbEntity
8
0
100
AcDbSpline
70
0
71
3
62
2
74
2
12
-0.28125
22
0.48714
32
0.00000
13
-0.28125
23
-0.48714
33
0.00000
11
0.56250
21
-4.57428
31
0.00000
11
-0.56250
21
-4.57428
31
0.00000
0
LINE
5
AE
330
AA
100
AcDbEntity
8
0
100
AcDbLine
10
-0.56250
20
-4.57428
11
-2.28774
21
-7.56247
62
2
0
SPLINE
5
AF
330
AA
100
AcDbEntity
8
0
100
AcDbSpline
70
0
71
3
62
2
74
2
12
-0.28125
22
-0.48714
32
0.00000
13
0.00554
23
0.56247
33
0.00000
11
-2.28774
21
-7.56247
31
0.00000
11
-2.83916
21
-7.41181
31
0.00000
0
LINE
5
B0
330
AA
100
AcDbEntity
8
0
100
AcDbLine
10
-2.83916
20
-7.41181
11
-2.79970
21
-3.40169
62
2
0
SPLINE
5
B1
330
AA
100
AcDbEntity
8
0
100
AcDbSpline
70
0
71
3
62
2
74
2
12
0.00554
22
0.56247
32
0.00000
13
-0.55221
23
0.10711
33
0.00000
11
-2.79970
21
-3.40169
31
0.00000
11
-3.89304
21
-2.06253
31
0.00000
0
LINE
5
B2
330
AA
100
AcDbEntity
8
0
100
AcDbLine
10
-3.89304
20
-2.06253
11
-7.82998
21
-1.29891
62
2
0
SPLINE
5
B3
330
AA
100
AcDbEntity
8
0
100
AcDbSpline
70
0
71
3
62
2
74
2
12
-0.55221
22
0.10711
32
0.00000
13
0.51054
23
0.23613
33
0.00000
11
-7.82998
21
-1.29891
31
0.00000
11
-7.91332
21
-0.61243
31
0.00000
0
LINE
5
B4
330
AA
100
AcDbEntity
8
0
100
AcDbLine
10
-7.91332
20
-0.61243
11
-4.27348
21
1.07106
62
2
0
SPLINE
5
B5
330
AA
100
AcDbEntity
8
0
100
AcDbSpline
70
0
71
3
62
2
74
2
12
0.51054
22
0.23613
32
0.00000
13
-0.13997
23
0.54481
33
0.00000
11
-4.27348
21
1.07106
31
0.00000
11
-3.53234
21
2.63294
31
0.00000
0
LINE
5
B6
330
AA
100
AcDbEntity
8
0
100
AcDbLine
10
-3.53234
20
2.63294
11
-4.53022
21
6.51712
62
2
0
SPLINE
5
B7
330
AA
100
AcDbEntity
8
0
100
AcDbSpline
70
0
71
3
62
2
74
2
12
-0.13997
22
0.54481
32
0.00000
13
0.43220
23
-0.36001
33
0.00000
11
-4.53022
21
6.51712
31
0.00000
11
-3.94575
21
6.88671
31
0.00000
0
LINE
5
B8
330
AA
100
AcDbEntity
8
0
100
AcDbLine
10
-3.94575
20
6.88671
11
-1.55000
21
4.89111
62
2
0
LINE
5
B9
330
AA
100
AcDbEntity
8
0
100
AcDbLine
10
-1.55000
20
4.89111
11
-1.55000
21
0.00000
62
2
0
LINE
5
BA
330
AA
100
AcDbEntity
8
0
100
AcDbLine
10
-1.55000
20
0.00000
11
1.55000
21
0.00000
62
2
0
LINE
5
BB
330
AA
100
AcDbEntity
8
0
100
AcDbLine
10
1.55000
20
0.00000
11
1.55000
21
4.89111
62
2
0
LINE
5
BC
330
AA
100
AcDbEntity
8
0
100
AcDbLine
10
1.55000
20
4.89111
11
3.94575
21
6.88671
62
2
0
SPLINE
5
BD
330
AA
100
AcDbEntity
8
0
100
AcDbSpline
70
0
71
3
62
2
74
2
12
0.43220
22
0.36001
32
0.00000
13
-0.13997
23
-0.54481
33
0.00000
11
3.94575
21
6.88671
31
0.00000
11
4.53022
21
6.51712
31
0.00000
0
LINE
5
BE
330
AA
100
AcDbEntity
8
0
100
AcDbLine
10
4.53022
20
6.51712
11
3.53234
21
2.63294
62
2
0
SPLINE
5
BF
330
AA
100
AcDbEntity
8
0
100
AcDbSpline
70
0
71
3
62
2
74
2
12
-0.13997
22
-0.54481
32
0.00000
13
0.51054
23
-0.23613
33
0.00000
11
3.53234
21
2.63294
31
0.00000
11
4.27348
21
1.07106
31
0.00000
0
LINE
5
C0
330
AA
100
AcDbEntity
8
0
100
AcDbLine
10
4.27348
20
1.07106
11
7.91332
21
-0.61243
62
2
0
SPLINE
5
C1
330
AA
100
AcDbEntity
8
0
100
AcDbSpline
70
0
71
3
62
2
74
2
12
0.51054
22
-0.23613
32
0.00000
13
-0.55221
23
-0.10711
33
0.00000
11
7.91332
21
-0.61243
31
0.00000
11
7.82998
21
-1.29891
31
0.00000
0
LINE
5
C2
330
AA
100
AcDbEntity
8
0
100
AcDbLine
10
7.82998
20
-1.29891
11
3.89304
21
-2.06253
62
2
0
SPLINE
5
C3
330
AA
100
AcDbEntity
8
0
100
AcDbSpline
70
0
71
3
62
2
74
2
12
-0.55221
22
-0.10711
32
0.00000
13
0.00554
23
-0.56247
33
0.00000
11
3.89304
21
-2.06253
31
0.00000
11
2.79970
21
-3.40169
31
0.00000
0
LINE
5
C4
330
AA
100
AcDbEntity
8
0
100
AcDbLine
10
2.79970
20
-3.40169
11
2.83916
21
-7.41181
62
2
0
SPLINE
5
C5
330
AA
100
AcDbEntity
8
0
100
AcDbSpline
70
0
71
3
62
2
74
2
12
0.00554
22
-0.56247
32
0.00000
13
-0.28125
23
0.48714
33
0.00000
11
2.83916
21
-7.41181
31
0.00000
11
2.28774
21
-7.56247
31
0.00000
0
ENDBLK
5
C6
330
AA
100
AcDbEntity
8
0
100
AcDbBlockEnd
0
BLOCK
5
C9
330
C8
100
AcDbEntity
8
0
100
AcDbBlockBegin
2
mini star
70
0
10
0.00000
20
0.00000
30
0.00000
3
mini star
1

0
LINE
5
CA
330
C8
100
AcDbEntity
8
0
100
AcDbLine
10
2.03485
20
0.06584
11
0.99458
21
0.38416
62
2
0
SPLINE
5
CB
330
C8
100
AcDbEntity
8
0
100
AcDbSpline
70
0
71
3
62
2
74
2
12
-0.10758
22
0.03292
32
0.00000
13
0.02528
23
0.10962
33
0.00000
11
0.99458
21
0.38416
31
0.00000
11
0.82998
21
0.66925
31
0.00000
0
LINE
5
CC
330
C8
100
AcDbEntity
8
0
100
AcDbLine
10
0.82998
20
0.66925
11
1.07444
21
1.72931
62
2
0
SPLINE
5
CD
330
C8
100
AcDbEntity
8
0
100
AcDbSpline
70
0
71
3
62
2
74
2
12
0.02528
22
0.10962
32
0.00000
13
-0.08230
23
-0.07670
33
0.00000
11
1.07444
21
1.72931
31
0.00000
11
0.96041
21
1.79515
31
0.00000
0
LINE
5
CE
330
C8
100
AcDbEntity
8
0
100
AcDbLine
10
0.96041
20
1.79515
11
0.16459
21
1.05341
62
2
0
SPLINE
5
CF
330
C8
100
AcDbEntity
8
0
100
AcDbSpline
70
0
71
3
62
2
74
2
12
-0.08230
22
-0.07670
32
0.00000
13
-0.08230
23
0.07670
33
0.00000
11
0.16459
21
1.05341
31
0.00000
11
-0.16459
21
1.05341
31
0.00000
0
LINE
5
D0
330
C8
100
AcDbEntity
8
0
100
AcDbLine
10
-0.16459
20
1.05341
11
-0.96041
21
1.79515
62
2
0
SPLINE
5
D1
330
C8
100
AcDbEntity
8
0
100
AcDbSpline
70
0
71
3
62
2
74
2
12
-0.08230
22
0.07670
32
0.00000
13
0.02528
23
-0.10962
33
0.00000
11
-0.96041
21
1.79515
31
0.00000
11
-1.07444
21
1.72931
31
0.00000
0
LINE
5
D2
330
C8
100
AcDbEntity
8
0
100
AcDbLine
10
-1.07444
20
1.72931
11
-0.82998
21
0.66925
62
2
0
SPLINE
5
D3
330
C8
100
AcDbEntity
8
0
100
AcDbSpline
70
0
71
3
62
2
74
2
12
0.02528
22
-0.10962
32
0.00000
13
-0.10758
23
-0.03292
33
0.00000
11
-0.82998
21
0.66925
31
0.00000
11
-0.99458
21
0.38416
31
0.00000
0
LINE
5
D4
330
C8
100
AcDbEntity
8
0
100
AcDbLine
10
-0.99458
20
0.38416
11
-2.03485
21
0.06584
62
2
0
SPLINE
5
D5
330
C8
100
AcDbEntity
8
0
100
AcDbSpline
70
0
71
3
62
2
74
2
12
-0.10758
22
-0.03292
32
0.00000
13
0.10758
23
-0.03292
33
0.00000
11
-2.03485
21
0.06584
31
0.00000
11
-2.03485
21
-0.06584
31
0.00000
0
LINE
5
D6
330
C8
100
AcDbEntity
8
0
100
AcDbLine
10
-2.03485
20
-0.06584
11
-0.99458
21
-0.38416
62
2
0
SPLINE
5
D7
330
C8
100
AcDbEntity
8
0
100
AcDbSpline
70
0
71
3
62
2
74
2
12
0.10758
22
-0.03292
32
0.00000
13
-0.02528
23
-0.10962
33
0.00000
11
-0.99458
21
-0.38416
31
0.00000
11
-0.82998
21
-0.66925
31
0.00000
0
LINE
5
D8
330
C8
100
AcDbEntity
8
0
100
AcDbLine
10
-0.82998
20
-0.66925
11
-1.07444
21
-1.72931
62
2
0
SPLINE
5
D9
330
C8
100
AcDbEntity
8
0
100
AcDbSpline
70
0
71
3
62
2
74
2
12
-0.02528
22
-0.10962
32
0.00000
13
0.08230
23
0.07670
33
0.00000
11
-1.07444
21
-1.72931
31
0.00000
11
-0.96041
21
-1.79515
31
0.00000
0
LINE
5
DA
330
C8
100
AcDbEntity
8
0
100
AcDbLine
10
-0.96041
20
-1.79515
11
-0.16459
21
-1.05341
62
2
0
SPLINE
5
DB
330
C8
100
AcDbEntity
8
0
100
AcDbSpline
70
0
71
3
62
2
74
2
12
0.08230
22
0.07670
32
0.00000
13
0.08230
23
-0.07670
33
0.00000
11
-0.16459
21
-1.05341
31
0.00000
11
0.16459
21
-1.05341
31
0.00000
0
LINE
5
DC
330
C8
100
AcDbEntity
8
0
100
AcDbLine
10
0.16459
20
-1.05341
11
0.96041
21
-1.79515
62
2
0
SPLINE
5
DD
330
C8
100
AcDbEntity
8
0
100
AcDbSpline
70
0
71
3
62
2
74
2
12
0.08230
22
-0.07670
32
0.00000
13
-0.02528
23
0.10962
33
0.00000
11
0.96041
21
-1.79515
31
0.00000
11
1.07444
21
-1.72931
31
0.00000
0
LINE
5
DE
330
C8
100
AcDbEntity
8
0
100
AcDbLine
10
1.07444
20
-1.72931
11
0.82998
21
-0.66925
62
2
0
SPLINE
5
DF
330
C8
100
AcDbEntity
8
0
100
AcDbSpline
70
0
71
3
62
2
74
2
12
-0.02528
22
0.10962
32
0.00000
13
0.10758
23
0.03292
33
0.00000
11
0.82998
21
-0.66925
31
0.00000
11
0.99458
21
-0.38416
31
0.00000
0
LINE
5
E0
330
C8
100
AcDbEntity
8
0
100
AcDbLine
10
0.99458
20
-0.38416
11
2.03485
21
-0.06584
62
2
0
SPLINE
5
E1
330
C8
100
AcDbEntity
8
0
100
AcDbSpline
70
0
71
3
62
2
74
2
12
0.10758
22
0.03292
32
0.00000
13
-0.10758
23
0.03292
33
0.00000
11
2.03485
21
-0.06584
31
0.00000
11
2.03485
21
0.06584
31
0.00000
0
ENDBLK
5
E2
330
C8
100
AcDbEntity
8
0
100
AcDbBlockEnd
0
ENDSEC
0
SECTION
2
ENTITIES
999
0
0
INSERT
5
3F
330
16
100
AcDbEntity
8
0
100
AcDbBlockReference
10
26.48374
20
90.00000
2
tree1
70
1
71
1
0
INSERT
5
64
330
16
100
AcDbEntity
8
0
100
AcDbBlockReference
10
79.45121
20
90.00000
2
tree2
70
1
71
1
0
INSERT
5
8B
330
16
100
AcDbEntity
8
0
100
AcDbBlockReference
10
52.96747
20
76.50000
2
base
70
1
71
1
0
INSERT
5
A9
330
16
100
AcDbEntity
8
0
100
AcDbBlockReference
10
52.96747
20
54.00000
2
star1
70
1
71
1
0
INSERT
5
C7
330
16
100
AcDbEntity
8
0
100
AcDbBlockReference
10
52.96747
20
9.00000
2
star2
70
1
71
1
0
INSERT
5
E3
330
16
100
AcDbEntity
8
0
100
AcDbBlockReference
10
48.46747
20
42.75000
2
mini star
70
1
71
1
0
INSERT
5
E4
330
16
100
AcDbEntity
8
0
100
AcDbBlockReference
10
52.96747
20
42.75000
2
mini star
70
1
71
1
0
INSERT
5
E5
330
16
100
AcDbEntity
8
0
100
AcDbBlockReference
10
57.46747
20
42.75000
2
mini star
70
1
71
1
0
INSERT
5
E6
330
16
100
AcDbEntity
8
0
100
AcDbBlockReference
10
52.96747
20
38.25000
2
mini star
70
1
71
1
0
INSERT
5
E7
330
16
100
AcDbEntity
8
0
100
AcDbBlockReference
10
52.96747
20
33.75000
2
mini star
70
1
71
1
0
INSERT
5
E8
330
16
100
AcDbEntity
8
0
100
AcDbBlockReference
10
52.96747
20
29.25000
2
mini star
70
1
71
1
0
ENDSEC
0
SECTION
2
OBJECTS
999
0
0
DICTIONARY
5
A
330
0
100
AcDbDictionary
280
0
281
1
3
ACAD_IMAGE_DICT
350
B
3
ACAD_GROUP
350
C
3
ACAD_IMAGE_VARS
350
D
0
DICTIONARY
5
B
330
A
100
AcDbDictionary
280
0
281
1
0
DICTIONARY
5
C
330
A
100
AcDbDictionary
280
0
281
1
3
mini stars
350
E9
0
RASTERVARIABLES
5
D
330
A
100
AcDbRasterVariables
90
0
70
1
71
1
72
1
0
GROUP
5
E9
102
{ACAD_REACTORS
330
C
102
}
100
AcDbGroup
71
1
300
mini stars
70
0
340
E3
340
E4
340
E5
340
E6
340
E7
340
E8
0
ENDSEC
0
EOF
